Song: 'I might be wrong'
Artist: Radiohead

Ok, this isn't the full song, I worked it out from the Jools Holland
Radiohead special, the tuning is DAGDBE (drop the D). There's a bit
in the middle where I can't figure out what Jonny does.

e----------|
B----------|
D----------|
G--0---0---|
A----------|
D-0--/5--3-|

e--------------------------|
B--------------------------|
D--------------------------|
G--0---0--0--0---0--0--0---|
A--------------------------|
D-8--/3--3--2--8--/3--3--2-|

e------------------------|
B------------------------|
D------------------------|
G--0--0--0--0---0---0--0-|
A------------------------|
D-8--8--7--7--10--10--8--|

e-------------|
B-------------|
D-------------|
G--0--0---0---|
A-------------|
D-0--5--/7--5-|

e-------------------------------------------------|
B-------------------------------------------------|
D-------------------------------------------------|
G--0------0--0--0--0------0--0--0--0------0--0--0-|
A-------------------------------------------------|
D-0--5--/8--7--7--0--5--/7--5--5--0--3--/5--3--3--|

That's pretty much it. Any corrections...(you know the deal) E-mail me
[email protected]





Ваше мнение



Капча