Radiohead , How i made my Millions.
Tabbed by Mike McConnell.

There are five chords used:
A (an A-major picked chord)
(Played in the verses)
e----------------------------
b-----------(2)-------------- (first time only)
g---------2-----2-----2------
d------2-----2-----2-----2---
a---0------------------------
e----------------------------
(This played before the verse)
e----------------------------
b----------------------------
g---------2-----2-----2--1---
d------2-----2-----2---------
a---0------------------------
e----------------------------
C#m (a c#-minor picked chord)
(Let's call this the verse)
e----------------------------------------------------
b---------------------------------------0-----0------
g---------1-----1-----1-----------1------------------
d------2-----2-----2-----2-----2-----2-----2-----2---
a---4-----------------------4------------------------
e----------------------------------------------------
D (a D-major picked chord)
(Then this should be the chorus)
e----------------------------
b---------3-----3-----3------
g------2-----2-----2-----2---
d---0------------------------
a----------------------------
e----------------------------
Bm (a B-minor picked chord)
e----------------------------
b---------------3-----3------
g---------4------------------
d------4-----4-----4-----4---
a---2------------------------
e----------------------------
A/D
(This is the bridge)
e-------------------------------------------------
b-------------------------------------------------
g---------2-----2-----2-------2-----------2-------
d------2-----2-----2-------2-----2--0--2------2---
a---0-------------------0----------(5)------------
e-------------------------------------------------
e---------------------------------------------------
b---------------------------------------------------
g---------2-----2-----2----------2-----2-----2------
d------2-----2-----2----2-----2-----2-----2-----2---
a---0----------------------0------------------------
e---------------------------------------------------
These bits are played around in this order:
(The numbers indicate how many times you play the bit)
Intro note:
e-------
b-------
g-------
d-------
a---0---
e-------
A (4)
Verse:
C#m (1)
I was stronger
A (2)
C#m (1)
I was better
A (2)
Chorus:
D (2) Bm (2)
Picked you out
A (2)
Verse:
C#m (1)
Now don't say a word
A (2)
C#m (1)
No don't yell out
A (2)
Chorus:
D (2) Bm (2)
Never mind
Bridge:
A/D (2)
Verse:
C#m (1)
Led you out
A (2)
C#m (1)
Led you back
A (2)
Chorus:
D (2) Bm (2)
Stay on Stay down
Bridge:
A/D (2)
Chorus:
D (2) Bm (2)
Let it fall Let it fall
Bridge:
A/D (2)
Chorus:
D (2) Bm (2)
Let it fall Let it fall
Outro:
A (3) (ends with intro note)





Ваше мнение



Капча