Вступление:
Am Asus2 Asus4 (X2) потом Am
Куплет 1
Am E C/G Dadd9/F#
wake from your sleep, the drying of your tears,
Am E Asus4 A
today we escape, we escape
Am E C/G Dadd9/F# Dadd9/F
pack and get dressed, before your father hears us,
Am E Asus4 A
before all hell breaks loose
припев
Gm11 D7/F#
breathe, keep breathing
Asus2 Am Asus2 Asus4 Am Esus4
don´t lose your nerve
Gm11 D7/F#
breathe, keep breathing
Asus2 Am Asus2 Asus4 Am Esus4 E
I can´t do this alone
Куплет 2
Sing us a song, a song to keep us warm
there´s sucha chill, sucha chill
Am B E F Bb
And you can laugh, a spineless laugh, we hope your rules and E
Esus4
wisdom choke you
Am E C/G Dadd9/F# Dadd9/F
And now we are one, in everlasting peace,
Am E Asus4 A
We hope that you choke, that you choke (повтори три раза и переходи на А)
Эд О Брайан начинает играть на электро:
e-----19----21------------18---19---15---------15---------------------
B-19------------21----17-------------------15------15---17---20-------
G---------------------------------------------------------------------
e-20--19--18----------16---18------19--21----19-18-------17--19--17-15
B---------------19----------------------------------19----------------
G---------------------------------------------------------------------
e--14-----------12----11----10----9-------------------
B-------14-------------------------------11----12------
G------------------------------------------------------
Использующиеся аккорды
Am (x02210)
Asus2 (x02200)
Asus4 (x02230)
E (022100)
C/G (332010)
Dadd9/F# (2x0230)
Dadd9/F (1x0230)
Gm11 (3x0313)
D7/F# (2x0212)
Esus4 (022200)
B (x2444x)
F (133211)
Bb (x1333x)
A (x02220)





Ваше мнение



Капча