Electioneering, Radiohead.
By FeRg. http://clik.to/FeRg
this is the basic note structure, listen for repeats and timings, and also - I
don't think it's completely right, but it's as near as I could get. :)
intro/verse
G---||--------------------------||--------------------------------------
D---||--------------------------||--------------------------------------
A---||--5--5-----5-----5-----3--||--------------------------------------
E---||--------5-----5-----3-----||--------------------------------------

inbetween bit :)
G---------------------------------------------------|-------------------
D---------------------------------------------------|-------------------
A---3--3--3--3--3--3--3--3--3--3--3--3--3--5--7--8--|-------------------
E---------------------------------------------------|-------------------


G-----------------------------------------------------------------------
D-----------------------------------------------------------------------
A-----------------------------------------------------------------------
E------------------------------------------------5--5--5--5--5--5--3----

chorus
G---------------||--------------------------------------------|---------
D---------------||--------------------------------------------|---------
A---------------||--5--5--5--7--7--7--8--8--8--9--9--9--------|---------
E---3--1--1--0--||--------------------------------------------|---------


G-----------------------------------------------------------------------
D-----------------------------------------------------------------------
A-----------------------------------------------------------------------
E------------------------------------------------5--5--3--3--1--1--1----

verse
G---------------||--------------------|--------------------------|------
D---------------||--------------------|--------------------------|------
A---------------||--5--5-----5-----5--|--5--5--7--7--8--8--9--9--|------
E---0--1--0--1--||--------5-----3-----|--------------------------|------

versus (?) !!! :) lol
G------------------------------------------|-----------------------|----
D------------------------------------------|-----------------------|----
A------------------------------------------|-----------------------|----
E------------------------------------------|--5--5-----5--7--8--9--|----


G---------------------|-------------------------------------------------
D---------------------|-------------------------------------------------
A---------4-----------|-------------------------------------------------
E---5--5-----3--1--0--|-------------------------------------------------


G---------------------------------------------------------|-------------
D---------------------------------------------------------|-------------
A---------------------------------------------------------|-------------
E---------------------------------------------------------|-------------





Ваше мнение



Капча