Guitar: 6 String Acoustic

Intro/Verse

e----------------------3--3--3--3--3--3--3---------------------
B----------------------3--3--3--3--3--3--3---------------------
G-------4--4--4--4--4--4--4--4--4--4--4--4--------8--8--8--8--8--9--9--9
D-5--5--5--5--5--5--5--5--5--5--5--5--5--5--9--9--9--9--9--9--9-10-10-10
A-5--5--5--5--5--5--5--5--5--5--5--5--5--5--9--9--9--9--9--9--9-10-10-10
E-3--3--3--3--3--3--3--3--3--3--3--3--3--3--7--7--7--7--7--7--7--8--8--8

e-----------------------------------------------------------------------
B-----------------------------------------------------------------------
G-8--8--8--9--9--9--9--9--9--9-10-10-10--9--9--9--8--8--8--8--8--8--8--8
D-9--9--9-10-10-10-10-10-10-10-11-11-11-10-10-10-10-10-10-10-10-10-10-10
A-9--9--9-10-10-10-10-10-10-10-11-11-11-10-10-10-10-10-10-10-10-10-10-10
E-7--7--7--8--8--8--8--8--8--8--9--9--9--8--8--8--8--8--8--8--8--8--8--8

e------------------
B------------------
G--8--8--8--8--8--8
D-10-10-10-10-10-10
A-10-10-10-10-10-10
E--8--8--8--8--8--8

Chorus

e------3--3----3--3--3------------------------------------------------
B------3--3----3--3--3------------------------------------------------
G-4----4--4----4--4--4----8----8--8--8--8----5--5--5--5--5--5--5--7--7
D-5----5--5----5--5--5----9----9--9--9--9-----------------------------
A-5----5--5----5--5--5----9----9--9--9--9----3--3--3--3--3--3--3--5--5
E-3----3--3----3--3--3----7----7--7--7--7-----------------------------

e-------------------------------------------------
B-------------------------------------------------
G-7--7--7--7--7--9--9--9--9--9--9--9--12----------
D----------------------------------------let ring-
A-5--5--5--5--5--7--7--7--7--7--7--7--10----------
E-------------------------------------------------

Solo: Starting Near The End Of The 2nd Chorus

e-----------------------------------------------------------------------
B-----------------------------------------------------------------------
G-5--5--5--5--5--5--5--7--7--7--7--7--7--7--9--9--9--9--9--9--9-10-10-10
D-----------------------------------------------------------------------
A-3--3--3--3--3--3--3--5--5--5--5--5--5--5--7--7--7--7--7--7--7--8--8--8
E-----------------------------------------------------------------------

e------------------------------------------------------------------------
B------------------------------------------------------------------------
G-10-10-10-10--14--14--14--14--14--14--14--14--14--14--14--14--9--9--9--9
D------------------------------------------------------------------------
A--8--8--8--8--12--12--12--12--12--12--12--12--12--12--12--12--7--7--7--7
E------------------------------------------------------------------------

e------------------------------------------------------------------------
B------------------------------------------------------------------------
G-9--9--9--14--14--14--14--14--14--14--9--9--9--9--9--9--9-10-10-10-10-10
D------------------------------------------------------------------------
A-7--7--7--12--12--12--12--12--12--12--7--7--7--7--7--7--7--8--8--8--8--8
E------------------------------------------------------------------------

e-----------------------------------------------------------------------
B-----------------------------------------------------------------------
G-10-10--8--8--8--8--8--8--8--17--17--17--17--17--17--17--16--16--16--16
D-----------------------------------------------------------------------
A--8--8--6--6--6--6--6--6--6--15--15--15--15--15--15--15--14--14--14--14
E-----------------------------------------------------------------------

e------------------------------------------------------------------------
B------------------------------------------------------------------------
G-16--16--16-10-10-10-10-10-10-10--16--16--16--16--16--16--16-10-10-10-10
D------------------------------------------------------------------------
A-14--14--14--8--8--8--8--8--8--8--14--14--14--14--14--14--14--8--8--8--8
E------------------------------------------------------------------------

e--------------------------------------------------
B--------------------------------------------------
G-10-10-10--9--9--9--9--9--9--9--8-------5---------
D------------------------------------------let-ring
A--8--8--8--7--7--7--7--7--7--7--6-------3---------
E--------------------------------------------------

In the solo instead of tremlo-picking it like the original just strum the
chords gently.

There you have, it's quite easy once you get the hang of it,
enjoy - Martyn





Ваше мнение



Капча