From [email protected] Fri Apr 18 10:32:34 1997
Date: Mon, 31 Mar 1997 18:41:17 +0100
From: Henrik Hall
Reply-To: [email protected]
To: [email protected]
Subject: TAB: Bullet proof - Radiohead
Bullet Proof... I Wish I was / Radiohead
----------------------------------------

Intro:

Am Cmaj7 Bm D Am Cmaj7 Bm D D

Verse:

Am Cmaj7 Bm D
Limb by limb and tooth by tooth, tearing up inside of me.

Am Cmaj7 Bm D D
Everyday, everyhour, wish that I... was bullet proof.

Am Cmaj7 Bm D

Am Cmaj7 Bm D
Wax me, mould me, heat the pins and stab them in.

Am Cmaj7 Bm D D
You have turned me into this, just wish that it... was bullet proof...

Chorus:

G Bm Cadd9 Cadd9 G Bm Cadd9 Gm/Bb

Verse:

Am Cmaj7 Bm D
So pay me money, and take a shot, lead-fill the hole in me.

Am Cmaj7 Bm D D
I could burst a million bubbles, all surrogate... and bullet proof...

Chorus:

G Bm Cadd9 Cadd9 G Bm Cadd9 Cadd9 G Bm Cadd9 Gm/Bb

Chorus Figure:

/ - slide
p - pull-off

2 times:

|------7---------7----------|---------------------------|
|7/8-------7/8--------------|------7---------7----------|
|----0---0-----0---0-7p0-0-0|7p0-0---0-7p0-0---0-7p0-0-0|
|---------------------------|---------------------------|
|---------------------------|---------------------------|
|---------------------------|---------------------------|

1. 2.
|---------------------------| |---------------------------| |---|
|------5---------5----------| |------5---------5----------| |-3-|
|4p0-0---0-4p0-0---0-4p0-0-0| |4p0-0---0-4p0-0---0-4p0-0-0| |-0-|
|---------------------------| |---------------------------| |-0-|
|---------------------------| |---------------------------| |-1-|
|---------------------------| |---------------------------| |---|

Chords:

Am Cmaj7 Bm D G Cadd9 Gm/Bb
|-0---0------2---2--3--0----------|
|-1---0------3---3--3--3------3---|
|-2---0------4---2--0--0------0---|
|-2---2------4---0--0--2------0---|
|-0---3------2------2--3------1---|
|-------------------3-------------|

/Henrik Hall - [email protected]





Ваше мнение



Капча