Blow Out ? Radiohead
This is the best track on Radiohead?s first album ?Pablo Honey? and is my second favourite Radiohead song,
my first being ?Paranoid Android?.
Verse and Chorus
Em7 G Em7 A A
E--------2----------3--------------2-------x---------x---------0---------x---------x-------0------|
B--------0----------0--------------0-------1----s/---3---------2---------1---s/----3-------2------|
G--------0----------0--------------0-------0----s/---0---------2---------0---s/----0-------2------|
D--------2----------x--------------2-------2----s/---4---------2---------2---s/----4-------2------|
A--------2----------x--------------2-------x---------x---------0---------x---------x-------0------|
E--------0----------3--------------0-------x---------x---------x---------x---------x-------x------|
(Loud distorted bit)
A C
E------4--------------------------0------------|
B------2--------------------------0------------|
G------2--------------------------0------------|
D------2--------------------------2------------|
A------0--------------------------3------------|
E------x--------------------------3------------|
I think that a second guitarist plays a harmonic on the high E of the 7th fret for the opening,
which is played over the chords from the verse. This may not be accurate as I?m doing it from memory,
if there is any problems/corrections please Email me on [email protected]
Words
Verse One
In my mind and nailed into my heals
All the time, killing what I feel
Chorus
And everything I touch
(All wrapped up in cotton wool)
Turns to stone
(All wrapped up in sugarcoated pills)
Verse Two
I am fused, just in case I blow out
I am glued, just in case I crack out.


Ваше мнение



Капча