* RADIOHEAD - Big Boots (Man-O-War)
* Unreleased
* Guitar tab by OJ Lim
Cathy Fan
Intro/main riff:
Am D/F# F D/F#
E----------7p5---------------7p5---------------7p5---------------7p5--------|
B----5---5-------5-----4---4-------4-----3---3-------3-----4---4-------4----|
G--5---5-------5---5-5---5-------5---5-5---5-------5---5-5---5-------5---5--|
Am D/F#
drift all you like
F
from ocean to ocean
D/F# Am
search the whole world
D/F#
drunken confessions
F
and hijacks and films
D/F# Am
just make you moan alone
if you come home
i'll bake you a cake
lay your velvet eyes
i wish i could see you
just when i kill
you're my man-o-war
C C/B Am7 G D/F# F
and the worms will eat you whole
Chords: EADGBE
D/F# 200230
C/B X20020
Am7 X02010
================================================================================
From : Cathy Fan
Rough Draft Number 1 - Corrections, additions are most welcome. Or, take
the Jonny route and put in your own kinks.
[quick tabbed by ]
In addition to the chords which OJ posted, you can use this in place of
the F if you wish:
Dsus2/F [100230]
-
Riff - 3x - second time is variation of it.
e-----------------------------|
B-----------------------------|
G--7--5--4-----5--------------|
D-----------7-----------------|
A-----------------------------|
E-----------------------------|
- OR - (use which ever one floats your boat)
e-----------------------------|
B--3--1--0-----1--------------|
G-----------2-----------------|
D-----------------------------|
A-----------------------------|
E-----------------------------|
After the '...you're my man-o-war' bit. Add some squeals, slides, pops etc.
e------0------------------------------------------------------------------|
B------1----------------------3-----------------------3-------------------|
G------2---s7--5--4---5-------2----s7--5--4---5-------2----s7--5--4---5---|
D------2------------7---------0-------------7---------0-------------7-----|
A--0--------------------------x-----------------------x-------------------|
E--------------------------2-----------------------1----------------------|
Just play about on these notes to get 'dirty' sounding notes. Hmm.
e------------------------------------------------|
B------------------------------------------------|
G---------5-----5--------5--4--------------------|
D------7-----7-----7--7--------7-----------------|
A------------------------------------------------|
E------------------------------------------------|
After the 'worms will eat...' part. [NB: this is very sketchy- I'm not
sure how to show the 13-14-12 bit. There's some major bending, so you can
mess around w/ that]
e--13b14b12--10----------------------------------------------------------|
B----------------12b13b12--10----10--12--13--12--10--12p10-----10--------|
G-----------------------------11----------------------------11-----------|
D------------------------------------------------------------------------|
A------------------------------------------------------------------------|
E------------------------------------------------------------------------|
As for the part under the lyrics which go:
'so unplug your phone
stop all the chatter
it all comes flooding back
from poisoned clouds
to poison the world '
...I'm still working on it.
=======================================
Guitar Archive at Planet Telex
http://www.underworld.net/radiohead/
Max Kolombos
---------------------------------------


Ваше мнение



Капча