BEGINNING :
Em
-0--------12-----12-------0----12------------------------------------------------
-0-------------------------------------------------------------------------------
-0-------------------------------------------------------------------------------
-2-------------------------------------------------------------------------------
-2----------------------------------------7---6------10---9-----13---12----------
-0-------------------------------------------------------------------------------
w/phaser
INTRO :
Em C
--0-----------------0/x/8----x-----8------8xxxx----------/8----x-----8---x--
--0-----------------0/x/8----x-----8------8xxxx----------/8----x-----8---x--
--0-----------------0/x/9----x-----9------9xxxx----------/9----x-----8---x--
--2-----------------2/x/10---x----10-----10xxxx2----------/10---x----10---x--
--2-----------------2/x/10---x----10-----10xxxx2----------/10---x----10---x--
--0-----------------0/x/8----x-----8------8xxxx----------/8----x-----8---x--
slide up slide down slide up slide down
VERSE :
Em C Em
--0----------------------------------0/x/8-------8x----------------------------------------------0/x/8
--0----------------------------------0/x/8-------8x----------------------------------------------0/x/8
--0----------------------------------0/x/9-------9x----------------------------------------------0/x/9
--2----------------------------------2/x/10-----10x2----------------------------------------------2/x/10
--2----------------------------------2/x/10-----10x2----------------------------------------------2/x/10
--0----------------------------------0/x/8-------8x----------------------------------------------0/x/8
Destiny, destiny protect me from the world,.......... destiny, hold my hand protect me from the world
ADD (sur couplet) :
Em C Em C
B----------------11--13-----------------------11--13--------13--11--13
G------------------------12-----------------------------12------------------12
BRIDGE :
---------------------------------------------------------------------------------------------
----------------------------------------------------------------------------------------------
--11--12--14--12--11---------9------------11---------------12-----------14----------16--16--16
----------------------------------------------------------------------------------------------
--9---10--12--10---9---------7-------------9---------------10-----------12----------14--14--14
----------------------------------------------------------------------------------------------
Here we are...... with our running and confusion, and I don't see no confusion anywhere
CHORUS :
G5 G5/F# Em5 C5 C5/B A5 D5 D5/C G5 Em5 D5
-----------------------------------------------------------------------------------------------------
-----------------------------------------------------------------------------------------------------
--------------------------------------5-----5------2--------------7-------7------------------------7-
-----------5------5--------2----------5-----5------2--------------7-------7-------5-----------2----7-
-----------5------5--------2----------3-----2------0--------------5-------3-------5-----------2----5-
-----------3------2--------0------------------------------------------------------3-----------0------
And if the worm ...does... turn and if Lon....don.. burns I'll be standing on the beach with my guitar
D5 G5 G5/F# Em5 C5 C5/B A5 D5 G5 Em5 D5
----------------------------------------------------------------------------------------------------------------
----------------------------------------------------------------------------------------------------------------
--7------------------------------5--------5-------2---------7-------------------------------------------------7-
--7------5-----5------2----------5--------5-------2---------7---------------5-----------------2---------------7-
--5------5-----5------2----------3--------2-------0---------5---------------5-----------------2---------------5-
---------3-----2------0-----------------------------------------------------3-----------------0-----------------
I wanna be.. in a.. band when I get to. hea.....ven ...anyone can play guitar, and they won't be a nothing anymore
INTERLUDE :
C5 Em Bb Em
-------------------------------------------------------------------------------------------
-------------------------------------------------------------------------------------------
-5--------------------------------------------------------------------------9---7--5--4-
-5----------------------------------------------------------------------------------------
-3----------------------------------------------------------------------------------------
-------3--2--0-----0--2--3--5--6----5--3--6----5--3--6---5--3--0------------------

Bb Em
--------------------------------------------------------------0-
--------------------------------------------------------------0-
--------------------------------------------------------------0-
-------5---7---8------7---5---8------7---5---8------7---5-----2-
--------------------------------------------------------------2-
-------3---5---6------5---3---6------5---3---6------5---3-----0-
2nd Bridge + SOLO :
-----------------------------------------------------------------------------------------------
-----------------------------------------------------------------------------------------------
-11--12--14--12--11---------9-------------11--------------12-------------14----------16--17--19
-----------------------------------------------------------------------------------------------
-9---10--12--10---9---------7--------------9--------------10-------------12----------14--15--17
-----------------------------------------------------------------------------------------------
Here.we are...... with our running and confusion, and I don't see no confusion anywhere
SOLO
--------------------------------------------------------------------------------
--------------------------------------------------------------------------------
--------------------------------------------------------------------------------
-19---19---19---17-19-19--17-19-19--17-19-19--17-19-19---17161412119754-
--------------------------------------------------------------------------------
-17---17---17-------------------------------------------------------------------
--------------------------------------------------------------------------------
For the second part of the mini lead just before the
second verse, I give you this:
e----------------------------------------------------------------------
B--5------------5--5------------------------------------------------
G--7b(9)b7--5--4--0-2-3--0-2-3-2-0-3-2-0-------------
D----------------------------------------------------------2----------
A----------------------------------------------------------------------
E----------------------------------------------------------------------
=============
bend and release: 7b(9)b7
=============
=======================================
Guitar Archive at Planet Telex
http://www.underworld.net/radiohead/
Max Kolombos
---------------------------------------





Ваше мнение



Капча