e: Thu, 5 Mar 1998 14:26:06 -0500 (EST)
From: Gaetan Mongrain
Subject: TAB: Airbag (by Radiohead)
"Song: Airbag
By: Radiohead
From the album: Ok Computer
Tabbed by: Buzzpopman (Marc-Andre Mongrain)
Intro:
---|------------|-------------|-----------|-------------|
---|------------|-------------|-----------|-------------|
---|------------|-------------|-----------|-------------|
---|--3--/10--9-|-11----7-----|-3--/10--9-|-7-----11--14|
---|------------|-------------|-----------|-------------|
-0-|--1--/8---7-|-9-----5---0-|-1--/8---7-|-5-----9---12|
|--------------|-------------|--------------|
|--------------|-------------|--------------|
|--------------|-------------|--------------|
|-15-----10--9-|-11----7-----|-3--/10--9----|
|--------------|-------------|--------------|
|-13-----8---7-|-9-----5---0-|-1--/8---7----|
|--0--|---|
|--0--|---|
|--6--|---|
|--7--|---|
|--0--|---|
|-----|---|
Verse
|--0--|--0--|--0--|--0--|
|--0--|--0--|--0--|--0--|
|--6--|--8--|.-7-.|.-6-.|
|--7--|--7--|.-7-.|.-7-.|
|--0--|--0--|--0--|--0--| x 2
|-----|-----|-----|-----|
chorus:
|--0--|-----|--0--|--0--|
|--0--|-----|--0--|--0--|
|--2--|--2--|.-1-.|.-6-.|
|--1--|--4--|.-2-.|.-7-.|
|--2--|--4--|--2--|--0--| x 2
|-----|--2--|--0--|-----|
(repeat verse)
(repeat chorus)
Solo:
|----------------|----------------|
|-10t-----9t-----|-7t-----9t------|
|----------------|----------------|
|----------------|----------------|
|----------------|----------------|
|----------------|----------------|
|----------------|----------------|
|--6t------------|----------------|
|----------------|----------------|
|----------------|----------------|
|----------------|----------------|
|----------------|----------------|
|------------------------|-----------------------|
|-6--5---------------5---|-6--5------------------|
|-------7--6----6>7------|-------7--6------------|
|-----------------------7|-----------------------|
|------------------------|-----------------------|
|------------------------|-----------------------|
(repeat chorus)
**************************************************
/= slide from a note to another
t= tremolo picking
= hammer the second note
**************************************************





Ваше мнение



Капча