Author/Artist: Ra
Title: Walking And Thinking
Album: From One
Transcribed by: Michael Johnson
I know they use seven strings but the parts i figured out only
need a six string
------------------------------------------------------------------------------|
-----------1-----------1------------------------------------------------------|
-------4-----4-----4-----4-----0---4-------0---4------------------------------|
-----2---2-------2---2-------2---2---2---2---2---2----------------------------|
---------------------------3-----------3--------------------------------------|
--0------------0--------------------------------------------------------------|
------------------------------------------------------------------------------|
----------1-----------1-------------------------------------------------------|
------4-----4-----4-----4-----0---4-------0---4-------------------------------|
----2---2-------2---2-------2---2---2---2---2---2-----------------------------|
--------------------------3-----------0---------------------------------------|
--0-----------0---------------------------------------------------------------|
-----------3---------5---------3---------7------------------------------------|
---3-5-3-5---3-5-3-5---3-5-3-5---3-5-3-5--------------------------------------|
------------------------------------------------------------------------------|
------------------------------------------------------------------------------|
------------------------------------------------------------------------------|
------------------------------------------------------------------------------|
----------3---------5---------3--2-3-2-3/7------------------------------------|
--3-5-3-5---3-5-3-5---3-5-3-5-------------------------------------------------|
------------------------------------------------------------------------------|
------------------------------------------------------------------------------|
------------------------------------------------------------------------------|
------------------------------------------------------------------------------|
^Guitar 1
------------------------------------------------------------------------------|
------------------------------------------------------------------------------|
------------------------------------------------------------------------------|
--------------------------------2---0-----------------------------------------|
--0---------2---------3-------------------------------------------------------|
------------------------------------------------------------------------------|
------------------------------------------------------------------------------|
------------------------------------------------------------------------------|
------------------------------------------------------------------------------|
--------------------------------0----2----------------------------------------|
--0---------2----------3------------------------------------------------------|
------------------------------------------------------------------------------|
^Guitar 2
------------------------------------------------------------------------------|
------------------------------------------------------------------------------|
------------------------------------------------------------------------------|
------------------------------------------------------------------------------|
------------------------------------------------------------------------------|
------------------------------------------------------------------------------|
I CANT FIGURE THIS PART OUT
------------------------------------------------------------------------------|
------------------------------------------------------------------------------|
------------------------------------------------------------------------------|
------------5------------------5----2-----------------------------------------|
--2---------3---------2--------3----0-----------------------------------------|
--0-------------------0-------------------------------------------------------|
QUIETLY DISTORTED ^Guitar 2





Ваше мнение



Капча