TABBED by M_Jones18
1st guitar intro
repeat 4x, Its tricky so you gotta listen carefully
E--------2------3-2-----------------------------------------------------------
B------0--0-3-3-----3---------------------------------------------------------
G----0-----0-0-0---0-0--------------------------------------------------------
D--2--------------------------------------------------------------------------
A-----------------------------------------------------------------------------
D-----------------------------------------------------------------------------
2nd guitar Intro
repeat 2x
E-----------------------------------------------------------------------------
B-----------------------------------------------------------------------------
G-----------------------------------------------------------------------------
D--xxx---222--000---555--000--222-444--555--000-------------------------------
A--xxx---222--000---555--000--222-444--555--000-------------------------------
D--xxx---222--000---555--000--222-444--555--000-------------------------------
the bass starts to play what the 2nd guitar just played with some freaky
harmonics going on then the next guitar comes in about the same as it did in the intro
guitar 2
repeat 4x
E-----------------------------------------------------------------------------
B-----------------------------------------------------------------------------
G-----------------------------------------------------------------------------
D---xxxx------2-2--xxxx---5-5---xxxx------------------------------------------
A---xxxx------2-2--xxxx---5-5---xxxx------------------------------------------
D---xxxx------2-2--xxxx---5-5---xxxx------------------------------------------
Bridge
E-----------------------------------------------------------------------------
B-----------------------------------------------------------------------------
G-----------------------------------------------------------------------------
D--10---7---10---7--xxx-------------------------------------------------------
A--10---7---10---7--xxx-------------------------------------------------------
D--10---7---10---7--xxx-------------------------------------------------------
then repeat the two intros together to form the chorus but play 4x
thats basically the song cept for a small part at the end which
I will finish tabbing later





Ваше мнение



Капча