(Drop to D)
Intro
e---0--0------------------------------------0--0-------------------------------
b---3--3------------------------------------3--3-------------------------------
g---2--2------------------------------------2--2-------------------------------
d---0--0---2h3p2--------3--3---2h3p2--------0--0---2h3p2-------3--3---2h3p2-5--
a---0--0----------3-0---3--3----------3-5---0--0---------3-0---3--3-----------5
d-----------------------3--3-----------------------------------3--3------------
Repeat 1x

Riff 1
e----------------
b----------------
g---5--5----0--0-
d---8--7----3--2- Repeat intro 2x Repeat Riff 1 8x
a----------------
d----------------
Repeat 9x

And that all i have so far





Ваше мнение



Капча