R. Kelly - Fiesta (Remix and orig.)
tabbed by: GregM
email: [email protected]
Fiesta Remix: !!!! capo fret 1 !!!
Riff 1:
e-----9p8p6----6---6-------6----6---6----------------|
B---9-----6----6---6-------6----6---6----------------|
G---------6----6---6-------6----6---6----------------|
D----------------------------------------------------|
A-----------0----0---------0--0---0------------------|
E----------------------------------------------------|
Riff 2:
e---6-----6----6--------|
B---7-----7----7--------|
G---8-----8----8--------|
D---0---0----0----------|
A-----------------------|
E-----------------------|
Fiesta original: !!!! no capo !!!!!
Riff 1:
e-----8p7p5----5---5-------5----5---5----------------|
B---8-----5----5---5-------5----5---5----------------|
G---------5----5---5-------5----5---5----------------|
D----------------------------------------------------|
A-----------0----0---------0--0---0------------------|
E----------------------------------------------------|
Riff 2:
e---5-----5----5--------|
B---6-----6----6--------|
G---7-----7----7--------|
D---0---0----0----------|
A-----------------------|
E-----------------------|
The picking is a very short staccato-type thing......
Any questions, corrections, send a mail




Ваше мнение



Капча