here's "Wicked Game" by Chris Isaak (covered by R.E.M.)
From: Adrian Morse ([email protected])
"Wicked Game"
tune down 1/2 step...
intro:
(add some tremolo action...)
-----------------------------------|-----------------------------------
-0----------7---------7\\-------0--|-0----------7---------7\\-------0--
-----------------------------------|-----------------------------------
-----------------------------------|-----------------------------------
-----------------------------------|-----------------------------------
-----------------------------------|-----------------------------------
~~~~~~
--------------------------|
---5----------------------|
--6--7-6-4-----2---1------|
-7-----------4---2--------|
--------------------------|
--------------------------|
~~~~
-2----0-----------------------------
---3----3--2----0-------------------
-------------4----4-2--1-----1-2-4-- o
----------------------2----2-------- o
------------------------------------
------------------------------------

verse
Bm A E (fill)
------------
------------
----2---1---
--4---2-----
------------
------------
Bm A E (another fill)
------------
------------
----1-2-4---
--2---------
------------
------------
lyrics:
World was on fire
No one could save me but you.
Strange what desire make foolish people do
I never dreamed that I'd meet somebody like you
I never dreamed that I'd lose somebody like you
No, I don't want to fall in love
[This girl is only gonna break your heart]
No, I don't want to fall in love
[This girl is only gonna break your heart]
With you
With you
What a wicked game to play
To make me feel this way
What a wicked thing to do
To let me dream of you
What a wicked thing to say
You never felt this way
What a wicked thing to do
To make me dream of you
And I wanna fall in love
[This girl is only gonna break your heart]
And I don't want to fall in love
[This girl is only gonna break your heart]
World was on fire
No one could save me but you
Strange what desire make foolish people do
I never dreamed that I'd love somebody like you
I never dreamed that I'd lose somebody like you
And I wanna fall in love
[This girl is only gonna break your heart]
And I wanna fall in love
[This girl is only gonna break your heart]
With you
With you
Nobody loves no one...




Ваше мнение



Капча