WHERE'S CAPTAIN KIRK? (Spizz Energi)
Transcribed by: Alan Porter ([email protected])
All guitars are distorted
Intro (for bass)
-----
G:----------|------7--7|
D:0--0--6--6|0--0------|
Part 1
------
1 2 3 4
e:X--X--X--X|X--X--X--X|X--X--X--X|X--X--X--X|
B:X--X--X--X|X--X--X--X|X--X--X--X|8--8--8--8|
G:7--7--7--7|X--X--X--X|X--X--X--X|8--8--8--8|
D:7--7--7--7|7--7--7--7|8--8--8--8|8--8--8--8|
A:5--5--5--5|7--7--7--7|8--8--8--8|6--6--6--6|
E:5--5--5--5|5--5--5--5|6--6--6--6|6--6--6--6|
Part 2
------
1 2 3 4 1 2 3 4
e:X-----|-------|-------|-------|X-----|-------|-------|-------|
B:X-----|-------|-------|-------|X-----|-------|-------|-------|
G:7-----|-------|-------|-------|X-----|-------|-------|-------|
D:7-----|-------|-------|-------|8-----|-------|-------|-------|
A:5-----|-------|-------|-------|8-----|-------|-------|-------|
E:5-----|-------|-------|-------|6-----|-------|-------|-------|
Part 3
------
1, 2, 3, 4, 1, 2, 3, 4, 1__2__3__4 1, 2, 3, 4, 1, 2, 3, 4,
e:------------|------------|------------|------------|------------|
B:------------|------------|------------|------------|------------|
G:------------|------------|------------|------------|------------|
D:------------|------------|------------|------------|------------|
A:11-11-11-11-|11-11-11-11-|11-10-9--8--|7--7--7--7--|7--7--7--7--|
E:9--9--9--9--|9--9--9--9--|9--8--7--6--|5--5--5--5--|5--5--5--5--|
1__2__3__4 1, 2, 3, 4, 1, 2, 3, 4, 1__2__3__4
e:------------|------------|------------|----------|
B:------------|------------|------------|----------|
G:------------|------------|------------|----------|
D:------------|------------|------------|----------|
A:7--6--5--4--|3--3--3--3--|3--3--3--3--|3--X--X--X|
E:5--4--3--2--|1--1--1--1--|1--1--1--1--|1--X--X--X|
Solo
----
1 2 3 4 1 2 3 4 1 2 3 4 1 2 3 4
e:5/17--------|16-15-14-13-----|5/17-------|16-15-14-13-----|
B:------------|----------------|-----------|----------------|
G:------------|----------------|-----------|----------------|
D:------------|----------------|-----------|----------------|
A:------------|----------------|-----------|----------------|
E:------------|----------------|-----------|----------------|
Progression for song
--------------------
intro X1
Part1 X4
Part2 X2
Part3 X1
Part1 X4
Part2 X2
Part3 X1
Part1 X4
Solo X1
Part3 X4
Part1 X4
Part2 X2
Part3 X1
Part1 X4
Part3 X1
Part1 X4
Notes for Part3
---------------
1, 2, 3, 4, 1__2__3__4
----------- ----------
__________ ___ ____
| | | | | | | |
| | | |(semi quaver) | | | |(2 quavers)
0 0 0 0 0 0 0 0




Ваше мнение



Капча