WALTER'S THEME
From: [email protected]
Here's the way I play this song - The song is in E
and you just play Fig. 1 over and over during the
"verses" and the break is Fig.2. The song ends with
an E7 chord...
Fig. 1
E B E B E
------4-----2--------------4-----2--------------4---
---5-----5-----4--------5-----5-----4--------5------
4-----------------4--4-----------------4--4---------
----------------------------------------------------
----------------------------------------------------
----------------------------------------------------
---2-------------------2-------------------
5-----4-----2--2--2/4-----4----------------
---------4--2--2--2/4--------4-------------
-------------------------------------------
-------------------------------------------
-------------------------------------------
Fig. 2
A E A E
-0---0--0--0--0--0--0--0-0--0--0--0--0--------------
-10--9--7--5--5--5--5--4/5--5--2--0--0--------------
----------------------------------------------------
----------------------------------------------------
----------------------------------------------------
----------------------------------------------------
A E A E
-0---0--0--0--0--0--0--0-0--0--0--0--0--0-----------
-10--9--7--5--5--5--5--4/5--5--0--0--0--0-----------
----------------------------------------------------
----------------------------------------------------
----------------------------------------------------
----------------------------------------------------
Lyrics:
Hey this is David
I've got a hat the size of Oklahoma
Put on my boots and going down to Walter's
Good tasting barbecue
Bring some home to the misses
They'll give you a bag to put it in
This is David, signing off




Ваше мнение



Капча