#----------------------------------PLEASE NOTE---------------------------------#
#This file is the author's own work and represents their interpretation of the #
#song. You may only use this file for private study, scholarship, or research. #
#------------------------------------------------------------------------------#
#

R.E.M.
New Adventures in Hi-Fi
Undertow
tabbed by [email protected]

verse: repeat this

I know what I wanted...
G:----------------------------------------|
D:----------------------------------------|
A:--5h7---0---0-0h3h5-5/7---0---2-0-------|
E:----------------------------------------|

chorus: repeat this also

I'm drownin'...
G:------------------------------------------|
D:------4-5--7--7-7-7--5-4-----4-5--7--7-7-7|
A:--7---------------------7-----------------|
E:------------------------------------------|

bridge then
G:-----------------------| G:----------------|
D:-------------------0---| D:----------------|
A:-----------------------| x3 A:-4-4---2-4---2-0|
E:---2-2-2-2-2-2---------| E:----------------|




Ваше мнение



Капча