UNDERNEATH THE BUNKER
The first part is played 2 times at the beginning and then the second
part 2 times and then finally play the first part twice again. The song
then ends on the E chord.
The First Part:
E-----------------------------------------------------------------------
B-----------------------------------------------------------------------
G--3-4-5-4-3-5-4-------------------------4-2-0--------------------------
D----------------4-5-7-5-4-7-5---5-4-1---------1-2----------------------
A--------------------------------------2--------------------------------
E-----------------------------------------------------------------------
The Second Part:
E--7-8-10-8-7-10->15-12---15-14-12--------------------------------------
B----------------------------------15-13->15-13-12--------12-13-12------
G--------------------------------------------------14--14----------14---
D-----------------------------------------------------------------------
A-----------------------------------------------------------------------
E-----------------------------------------------------------------------
E-----------------------------------------------------------------------
B--12-12-12-12-10-8-10-10-10-10-8-7-5-4---------------------------------
G-----------------------------------------------------------------------
D-----------------------------------------------------------------------
A-----------------------------------------------------------------------
E-----------------------------------------------------------------------
Lyrics:
I will hide and you will hide
And we shall hide together here
Underneath the bunkers in the row
I have water I have rum
Wait for dawn and dawn shall come
Underneath the bunkers in the row




Ваше мнение



Капча