SO. CENTRAL RAIN
Original chords by: ?
Corrections by: alysia oakley ([email protected])
{ opening riff }
E: ---------|-------------------|-----------------|----------0-|---0------0---
B: ---------|----------3--------|-3---------------|------3-----|-3---3------0-
G: ---------|--------2---2------|---2-0-----------|----2---2---|--------2-----
D: -----2-3-|-0 {let ring out!}-|-------------2-3-|-0----------|--------------
A: -3-3-----|-------------------|--------3-3------|------------|--------------
C Em Gm F
Did you never call? I waited for your call
C Cm Bb C
These rivers of suggestion are driving me away
C Em Gm F
The trees will bend, the cities wash away
C Cm Bb C
The city on the river has a girl without a dream
chorus} C Dm x4
I'm sorry
{bass solo} C x4
{chords same as first verse}
Eastern to Mountain, third party call, the lines are down
The wise man wrote his words upon the rocks
But I'm not bound to follow suit
The trees will bend, the conversation's dimmed
Go build yourself another home, this choice isn't mine
chorus} C Dm x2
I'm sorry
{Am riff}
E(1) : -------------|-------0--------0----
B(2) : -1-----------|-------1-----1-------
G(3) : -2-----------|----------2--------2- x2
D(4) : -2-----------|----------------------
A(5) : -0-----------|----------------------

{bass solo} G x4 C x4
{same chords as other verses}
Did you never call? I waited for your call
These rivers of suggestion are driving me away
The ocean sang, the cities wash away
Go build yourself another dream, this choice isn't mine
Am riff x4
{end very intensely on Am}




Ваше мнение



Капча