Artist: R.E.M
Song: She Just Wants to BE
Album: REVEAL
Tabbed by: kinjamin “The Squire Li” ([email protected])
Hello All, I just bought the new R.E.M Album Reveal and I thought I will have a go at Track 4, She Just Wants to be. If there are any suggestions or comments can you give an us e-mail. Cheers and have fun!
Chords Used
Normal Tuning
Am¦ x02210
Cadd9 032033
Em¦ 022000
C x32010
F¦ 133211
Dsus2 xxx230
P=pull off
H=hammer on
Intro Riff:
X2
E—3-0----3-0-----0-
B-----1------1-3-0-
G----------------0-
D----------------2-
A----------------2-
E----------------0-
Verses Riff
Am Cadd9 Am Cadd9 Am Cadd9 C Em
E-----0---------p-------0--------p--------0--------p-------------------¦
B-----1-----p--1-0------1----p--1-0-------1-----p-1-0---1---3-------1-0¦
G-----2—-h—2-0----------2—-h—2-0----------2—-h—2-0--------------0------¦
D---2---0-3-----------2---0-3-----------2---0-3-----------2---2—--0----¦
A-0-----------------0-----------------0-----------------3-------2------¦
E----------------------------------------------------------------------¦
Pre Chorus
F
Now is greater
Dsus2
And she knows thats

Chorus
Am C Em Am
She Just wants to be somewhere
C G
Shes just wants to be
End of Chorus Riff
E---------------¦
B---------------¦
G---------------¦
D-----0---------¦
A-2-3---2-0---0-¦
E-----------3---¦
Guitar Solo 1
S S S S S S
E--5---5---5-7-8-7 5--5-5---5-7-8-10-12-15-5------¦
B----8---5-----------8---8------------------------¦
G-------------------------------------------------¦
D-------------------------------------------------¦
A-------------------------------------------------¦
E-------------------------------------------------¦

S S
E--5---5---5-7-8-7 5---5-5--5-7-8-7 7-5-7 5-5-3-5-¦
B----8---5-----------8----8-----------------------¦
G-------------------------------------------------¦
D-------------------------------------------------¦
A-------------------------------------------------¦
E-------------------------------------------------¦
Ending

X2 Then
E—3-0----3-0-----0-¦----------------¦
B-----1------1-3-0-¦-------1-0—-----¦
G----------------0-¦------2----2-2--¦
D----------------2-¦-----2------2---¦
A----------------2-¦----0---------0-¦
E----------------0-¦3---------------¦




Ваше мнение



Капча