She Just Wants To Be
REM
>From the Album: Reveal
Tabbed By Matt H
First Verse:
Once bass has actually started:
G|-----------------|-----------------|-----------------|-----------------|
D|-----------------|-----------------|-----------------|-----------------|
A|-----------------|-----------------|-----------------|---------7-7-5---|
E|-5---5---------3-|-5---5---------3-|-5---5---------3-|-5-5-7-8-------8-|
^ sometimes
just the C
for one
beat
Pre Chorus:
G|-----------------|-----------------|
D|-----------------|-----------------|
A|-8-8-8-8-8-8-8-8-|-5-5-5-5-5-5-5-5-|
E|-----------------|-----------------|
Chorus:
G|-----------------|-----------------|
D|-----------------|-----------------|
A|-----------------|-----------------|
E|-5-----5-8-----5-|-3-----3-3---3-5-|
Subsequent Verses:
Second verse starts with first two measures of first verse, then same as
all other verses and outro
G|-----------------|-----------------|-----------------|-----------------|
D|-----------------|-----------------|-----------------|-----------------|
A|-----------------|-----------------|-----------------|---------7-7-5---|
E|-5---5---5-3-5-7-|-5---5---5-3-5-7-|-5---5---5-3-5-7-|-5-5-7-8-------8-|




Ваше мнение



Капча