#----------------------------------PLEASE NOTE---------------------------------#
#This file is the author's own work and represents their interpretation of the #
#song. You may only use this file for private study, scholarship, or research. #
#------------------------------------------------------------------------------#
#
Radio Free Europe
From: Graham Woodhouse ([email protected])
Verse
A D E D E
G----------------|---------------------------|
D-7-7-7-7-7-7-7-7|-7-7-7-7-7-----------4-5-6-| (I know.. the timings all
A----------------|-----------5-7--7-5-7------| wrong! You'll pick it up)
E----------------|---------------------------|
Pre-Chorus (Straight off the boat...)
F# E A E
G---------------9-11-|-11-9--------------|-------------
D----------9-11------|------11-9-7-9-7---|-----7-------
A-9-9-9-11-----------|-----------------9-|-7-7---7-7-7-
E--------------------|-------------------|-------------
And again... (Where to go...)
F# This time go to B
G---------------9-11-|-11-9--------------|-----------------
D----------9-11------|------11-9-7-9-7---|-------------7-9-
A-9-9-9-11-----------|-----------------9-|---------7-9-----
E--------------------|-------------------|-7-7-7-9---------
Chorus (Not after first pre-chorus!!, it's an REM thang!)
Just fiddle around over E and A
E A
G--------------------|
D-------5-7-7--5-4---|
A-7-7-7------------7-|
E--------------------|
Bridge (Decide yourself...)
G-----------------------------
D---------------2-3-4---2-3-4-
A-2-2--2-2-2--4-------4-------
E-----------------------------
Anyone any ideas on the ending!




Ваше мнение



Капча