From: Steven Snider ([email protected])
Band: R.E.M.
Song: Parakeet
Chorus:

1 & 2 & 3 & 4 1 & 2 & 3 & 4
G--------------------*----------------------*
D--------------------*----------------------*
A--------------------*------------------2--*
E--3------3-2-------*2-0------0-2-3-----* 3 times
1 & 2 & 3 & 4 1 & 2 & 3 & 4
G---------------------*----------------------*
D---------------------*----------------------*
A-5------5-3--------*3-2------------------*
E --------------------*----------------------*
Verse:
1 & 2 & 3 & 4 1 & 2 & 3 & 4 1 & 2 & 3 & 4 1 & 2 & 3
& 4
G----------------------*--------------------*---------------------*--------------------*
D--2-------2-2-------*--------------------*---------------------*---------------------*
A---------------------*-3-------3-3-------*--0------0-0--------*-2-------2--2------*
E----------------------*--------------------*---------------------*---------------------*




Ваше мнение



Капча