NEAR WILD HEAVEN

{intro:}
Dadd9 A
E-|--------------0-------------0--|-----------------0------------------0------|
B-|-----7-------------7-----------|-------5-----------------5-----------------|
G-|---------7-------------7-------|------------6-----------------6------------|
D-|-0-----------------------------|--7----------------------------------------|
A-|-------------------------------|-------------------------------------------|
E-|-------------------------------|-------------------------------------------|
G6
E-|-------------0-------------0--|-------------0-------------0--|
B-|-----8------------8-----------|-----8------------8-----------|
G-|---------7-------------7------|---------7-------------7------|
D-|-5----------------------------|-5----------------------------|
A-|------------------------------|------------------------------|
E-|------------------------------|------------------------------|
Dadd9 A
E-|--------------0-------------0--|------0-------------------|
B-|-----7-------------7-----------|--5-----------8---7----0--|
G-|---------7-------------7-------|--6-----------------------|
D-|-0-----------------------------|--7--------7--------------|
A-|-------------------------------|--------------------------|
E-|-------------------------------|--------------------------|
G6
E-|-------------0--------------0--|-------------0--------------0--|
B-|-----8--------------8----------|-----8--------------8----------|
G-|---------7--------------7------|---------7--------------7------|
D-|-5-----------------------------|-5-----------------------------|
A-|-------------------------------|-------------------------------|
E-|-------------------------------|-------------------------------|
A G E A G
Whenever we hold each other, we hold each other,
Asus2 G6 Asus2 G6
there's a feeling that's gone. Something has gone wrong.
Asus2 G6 Asus2
And I don't know how much longer I can take it.
G6 Asus2
House made of heart, break it.
G6 Asus2 G6
Take my head in your hands and shake it in this near wild heaven
Dadd9 A G6
not near enough (inside, living inside, living inside)
G6 Dadd9 A G6
Near wild heaven (living inside, living inside, living inside)
G6
Near wild heaven.
A G E A G
Whatever it takes, I'm giving. It's just a gift I'm given.
Asus2 G6 Asus2 G6
Try to live inside. Trying to move inside.
Asus2 G6 Asus2
And I always thought that it would make me smarter,
G6 Asus2
but it's only made me harder.
G6 Asus2 G6
My heart thrown open wide in this near wild heaven
Dadd9 A G6
not near enough (inside, living inside, living inside)
Dadd9 A G6
Near wild heaven (living inside, living inside, living inside)
Dadd9 A G6
Near wild heaven (living inside, living inside, living inside)
Dadd9 A G6
Near wild heaven (living inside, living inside, living inside)
Dadd9 A G6
Near wild heaven (living inside, living inside, living inside)
G6
Near wild heaven
A5 G5 A5 G5
I'm holding my hands together. I'm holding my feet together.
A5 G5 A5 G5 G6
I'm holding myself together in this near wild heaven.
Dadd9 A G6
not near enough (living inside, living inside)
Dadd9 A G6
Not near enough (living inside, living inside)
G6
Near wild heaven
Dadd9 A G6
Near wild heaven (living inside, living inside, living inside)
Dadd9 A G6
Near wild heaven (living inside, living inside, living inside)
Dadd9 A G6
Near wild heaven (living inside, living inside, living inside)
Dadd9 A G6
Near wild heaven (living inside, living inside, living inside)




Ваше мнение



Капча