#----------------------------------PLEASE NOTE---------------------------------#
#This file is the author's own work and represents their interpretation of the #
#song. You may only use this file for private study, scholarship, or research. #
#------------------------------------------------------------------------------#
#
How the West Was Won and Where It Got Us
Bass Tab by Joshua J.B. Smith ([email protected])
Little bass noise at very beginning:
G:--------|
D:--------|
A:3h1--3--|
E:--------|
Intro:
(3x)
G:-----|
D:-----|
A:0h2--|
E:-----|
Verse (Repeat throughout):
G:---------------------------------|
D:---------0--2-----2--4-----------|
A:0--2-----------------------0--2--|
E:---------------------------------|
Chorus:
(3x) (1x)
G:-------------------------|---------------|
D:0-----0--0---5--2--2--4--|0-----0--------|
A:----------0--------------|---------4--0--|
E:-------------------------|---------------|
Interlude:
(4x)
G:----------------------|
D:-------------0--------|
A:2--0h2--0h2-----2--0--|
E:----------------------|




Ваше мнение



Капча