GHOST REINDEER IN THE SKY (Ramrods/Outlaws)
From: Ed Pellow
Verse Riff:
E
B--------------------------------------|-------------------------------------|
G--------------------------------------|-----------------------0--2222-----2-|
D-----0000---2---3333--0---------------|------0000---2---3333-----------3----|
A--0----------------------3333---0---3-|--0----------------------------------|
E
E
B--------33---1--3---------------------|-------------------------------------|
G---22---------------2---0000----------|-------------------------------------|
D------------------------------3---0---|----------3-------3---0-------0------|
A--------------------------------------|--0---1-------------------3----------|
E
Chorus:
G-------0- G----0--2-
D-0--3---- F(chord) D-3------- Dm
Yippy, tye aye Yippy, tye aye, oh
G-------0- G----0--2-
D-0--3---- F(chord) D-3------- Dm
Yippy, tye aye Yippy, tye aye, oh
Bb Dm
Ghostriders, in the Sky




Ваше мнение



Капча