GARDENING AT NIGHT (ACOUSTIC VERSION)
Transcriped by Bo Bech Christensen, Jakob Lund ([email protected])
INTRO.
E|---3---3---2---2---0---0---0--0--0---0---0---0---1---1---0---0---0-
B|---0---0---0---0---0---0---3--0--1---1---1---1---1---1---1---1---1-
G|---2---2---2---2---2---2---2--0--0---0---0---0---0---0---0---0---0- X 4
D|---0---0---0---0---0---0---0--0--2---2---2---2---2---2---2---2---2-
A|---------------------------------3---3---3---3---3---3---3---3---3-
E|-----------------------3-------------------------------------------
Vers.
(D)////////(A)////////(G)////////(A)////
E|---5---------3---------3---------3---------|-3---3---3---3-
B|---3---------1---------0---------3---------|-2---2---0---2-
G|---2---------2---------0---------0---------|-0---0---0---0-
D|---0---------2---------0---------2---------|-2---2---2---2-
A|-------------0---------2---------0---------|-0---0---0---0-
E|-----------------------3-------------------|---------------
Gardening at night......
E|--------5----5----5----5----3----3----3----3-
B|--------3----3----3----3----3----3----2----2-
G|--------2----2----2----2----0----0----0----0-
D|--------0----0----0----0----0----0----2----2-
A|---------------------------------------------
E|---------------------------------------------
The neighbors.......
Your sister said.....
(Em) (F#m)
E|----0-----------2-- |----3---3---3---3---3---3---3---3-
B|----3-----------2-- |----3---3---3---3---2---2---0---2-
G|----0-----------2-- |----0---0---0---0---0---0---0---0-
D|----2-----------4-- from |----2---2---2---2---2---2---2---2-
A|----2-----------4-- (Em) |----------------------------------
E|-------------------- |----------------------------------
OUTRO. After, gardening at......
E|---0---0---0---0---0---0---0---0---0---0---0---0---0---0---0---0-
B|---3---3---3---3---3---3---3---3---3---3---3---3---3---3---3---3-
G|---2---2---2---2---4---4---4---4---5---5---5---5---4---4---4---4-
D|---0---0---0---0---0---0---0---0---0---0---0---0---0---0---0---0-
A|-----------------------------------------------------------------
E|-----------------------------------------------------------------
Repeat INTRO.x4




Ваше мнение



Капча