FINEST WORKSONG
Intro riff:
E-|-----------------------------|-------0---------0-0-x-0-0----|
B-|----0-0-0-0-0---0-0-0-0-0-0--|-0-0-0-0-0-----0-0-0-x-0-0----|
G-|-o--4-4-4-4-4---4-4-4-4-4-4--|-4-4-4-4-4-----4-4-0-x-0-0--o-|
D-|-o---------------------------|----------------------------o-|
A-|-----------------------------|------------------------------|
E-|-----------------------------|------------------------------|

Verse:
Badd4
E-|--0-0-0-0-0------0-0-0-0-0-0-0--|------------|
B-|--0-0-0-0-0------0-0-0-0-0-0-0--|------------|
G-|--4-4-4-4-4------4-4-4-4-4-4-4--|------%-----|
D-|--4-4-4-4-4------4-4-4-4-4-4-4--|------------|
A-|--2-2-2-2-2------2-2-2-2-2-2-2--|------------|
E-|--------------------------------|------------|

{Use verse riff}
The time to rise has been engaged
You're better best to rearrange
I'm talking here to me alone
I listen to the finest worksong
E F#
Your finest hour
E F#
Your finest hour
{Intro riff}
{Use verse riff}
Another chance has been engaged
To throw Thoreau and rearrange
You are following this time
I beg you not beg to rhyme
E F#
(blow your horn) Your finest hour
E F#
(blow your horn) Your finest hour
{Intro riff}
{Use verse riff}
Take your instinct by the reins
Your better best to rearrange
What we want and what we need
Has been confused been confused
E F#
(blow your song) Your finest hour
E F#
(blow your song) Your finest hour
{Break: A single notes: A G F# G A}
{Use verse riff}
Take your instinct by the reins
Your better best to rearrange
What we want and what we need
Has been confused been confused
E F#
(blow your song) Your finest hour
E F#
(blow your song) Your finest hour
E F#
(blow your song) Your finest hour
{end with Em and various harmonics}




Ваше мнение



Капча