ENDGAME

Riff: (Measures 1, 2, and 3)
C Dadd4 E7 A
E-|----|---------------------------------------|-----------------------|------|
B-|----|---------------------------------------|-----------------------|------|
G-|----|o------0-----------------0-------------|-7------7--6-----------|------|
D-|----|o---------2-----------------4----------|---6----------7--------|------|
A-|-2--|----3---------3--(3)/5----------(5)/7--|-----7-----------0--2--|------|
E-|----|---------------------------------------|-----------------------|------|
C Dadd4 E7 A
E-|------------------------------------|------------------------------|-------|
B-|------------------------------------|------------------------------|-------|
G-|----0-----------------0-------------|-7------7--6h7p6-------------o|-------|
D-|-------2-----------------4----------|---6--------------7----------o|-------|
A-|-3---------3--(3)/5----------(5)/7--|-----7----------------0--2----|-------|
E-|------------------------------------|------------------------------|-------|
sometimes measure 4 ends like this....
(G)-6h7p6------6---
(D) -------7-----7-
(A) ---------------
{"Chorus":}
D Bm A
E ---------5-3-2--|-2--2--0----------0------|
B ---3-3-3-3-3-3--|-3--3--0---2---3-----0---|
G ---2-2-2-2-2-2--|-4--4------2-------------| Repeat
D -0-0-0-0-0-0-0--|-4--4------2-------------|
A ----------------|-2---------0-------------|
E ----------------|-------------------------|
{coming out of the chorus after the D riff play:}
E E7
E-|-0-------0--------------|--------------0-----------|
B-|-0-------------0--------|-----------0-----0--------|
G-|-1-----------------1----|--------1-----------1-----|
D-|-2---2------------------|--0--0--------------------|
A-|-2----------------------|-----------------------2--|
E-|-0----------------------|--------------------------|
{Play intro riff again, follow with the "chorus" riff, and instead of the E/E7
part, play the following:}
F#7 G5
E-|-----------0----------0-|-----------3--------------|
B-|-----2---------2--------|-----3----------3---------|
G-|--------3----------3----|--0-----0-----------0-----|
D-|--4---------------------|--------------------------|
A-|------------------------|--------------------------|
E-|------------------------|--------------------------|
E D
E-|-----------0----------0-|-----------2--------------|
B-|-----0----------0-------|-----3----------3---------|
G-|------------------------|--------2-----------2-----|
D-|--2-----2----------2----|--0-----------------------|
A-|------------------------|--------------------------|
E-|------------------------|--------------------------|
F#7 G5
E-|-----------0----------0-|-----------3--------------|
B-|-----2---------2--------|-----3----------3---------|
G-|--------3----------3----|--0-----0-----------0-----|
D-|--4---------------------|--------------------------|
A-|------------------------|--------------------------|
E-|------------------------|--------------------------|
E E7
E-|--------------0-------0-|--0-----------------------|
B-|-----0-----------0------|--0-----------------------|
G-|--------1---------------|--1-----------------------|
D-|--2--------2--------2---|--0-----------------------|
A-|------------------------|--------------------------|
E-|------------------------|--------------------------|
Then back to intro riff, "chorus" riff, E/E7 riff, end on D5.




Ваше мнение



Капча