Song: 'Be mine'
Artist: 'R.E.M.'

This is a great song from 'New Adventures In Hi-Fi.' Play it with a
bit of distortion. Standard tuning. There's a bit in the chorus where I
can't figure out what Mike does.

e---------------------------------------------------------------------
B---------------------------------------------------------------------
G---------------------------------------------------------------------
D--9--h11--11--11--9--11--13--14--14--13------------------------------
A--0---0----0---0--0---0---0---0---0---0--9--h11--11--9--11--11--11--11
E-----------------------------------------0----0---0--0---0---0---0---0

...You and me...

e------------2-----2-----0-----2-----0-----0-----0-----0-----0
B------------3-----4-----0-----4-----0-----0-----0-----0-----2
G------------2-----4-----1-----4-----4-----6-----2-----3-----4
D------------0-----4-----2-----4-----6-----8-----4-----4-----4
A------------*-----2-----2-----2-----6-----8-----4-----4-----0
E------------*-----2-----0-----2-----*-----*-----*-----*-----*

Ok, that's pretty much it, any corrections...(You know the deal) E-mail
me [email protected]




Ваше мнение



Капча