The Queers
Too many twinkies
tabbed by: [email protected]

Intro:
-----------------------------------------
-----------------------------------------
------3--3---5-3-------------------------
-5--5------5-----3-4-5-------------------

Verse:
---------------------
---------------------
------3...-5...------
-5...-----------3...-

End of verse, before chorus:
-------------
-------------
------5-7...-
-3...--------

chorus:
-----------------------------
-----------------------------
-------3-3-3---5-3-5-3-------
-5-5-5-------5---------5-3-5-




Ваше мнение



Капча