Band: The Queers
Song: Number one
Album: Don't back down
Tabbed: ryan

Verse
G:-------------------------------------------------------
D:-------------------------------------------------------
A:----------------------------------1-1-1-1-3-3-3-3
E:-1-0-1-0-1-0-1-0-1-0-1-0----------------------

G:------------------------------------
D:------------------------------------
A:--1-0-----1-0-----5-3-1-0-1-3
E:--------1-------1------------------
Chorus
G:----------------------------------------------------------------------
D:-----------------------------------------------------------------------
A:--5-5-5-5-5-5-3-3-3-3-3-3-3-1-1-1-1-1-1-1-0-0-0-0-0-
E:----------------------------------------------------------------------

G:------------------------------------------------------
D:------------------------------------------------------
A:-5-5-5-5-5-5--3-3-3-3-3-3-1-1-1-1-1-1--3
E:------------------------------------------------------




Ваше мнение



Капча