-------------------------------------------------------------------------------
Next Stop Rehab - The Queers
-------------------------------------------------------------------------------
By:Jake
Tuning: Normal
Intro
e|---------------------------------------------------------------------------|
B|---------------------------------------------------------------------------|
G|---------10-------12--12--12--12-------------------------------------------|
D|-10--10--10--10---12--12--12--12-----x4------------------------------------|
A|-10--10---8--10---10--10--10--10-------------------------------------------|
E|--8---8-------8------------------------------------------------------------|
Verse
e|---------------------------------------------------------------------------|
B|---------------------------------------------------------------------------|
G|------------------12-12-12-11/12-12----------------------------------------|
D|-10-10-10-10-10---12-12-12-11/12-12----x2----------------------------------|
A|-10-10-10-10-10---10-10-10--9/10-10----------------------------------------|
E|--8--8--8--8--8------------------------------------------------------------|
Pre Chorus
e|---------------------------------------------------------------------------|
B|---------------------------------------------------------------------------|
G|--10--10--10--12--12--12---------------------------------------------------|
D|--10--10--10--12--12--12--x2-----------------------------------------------|
A|---8---8---8--10--10--10---------------------------------------------------|
E|---------------------------------------------------------------------------|
e|---------------------------------------------------------------------------|
B|---------------------------------------------------------------------------|
G|-10-----12-----------------------------------------------------------------|
D|-10--x8-12--x8-------------------------------------------------------------|
A|--8-----10-----------------------------------------------------------------|
E|---------------------------------------------------------------------------|
Chorus
e|---------------------------------------------------------------------------|
B|---------------------------------------------------------------------------|
G|-------10------12--12--12--10--12------------------------------------------|
D|10-10--10--10--12--12--12--10--12------------------------------------------|
A|10-10---8--10--10--10--10---8--10------------------------------------------|
E|-8--8-------8--------------------------------------------------------------|




Ваше мнение



Капча