Artist: The Queers
Song: Motherfucker
Tabbed by: Rick ([email protected])
AIM: rickrack97
Chords:
E5 (022xxx)
G5 (355xxx)
A5 (577xxx)
C5 (x355xx)
D5 (x577xx)
Intro/Verse
E|---------------------------------------------------------------------|
B|---------------------------------------------------------------------|
G|------5-5-----7-7-----------------------5-5-----7-7------------------|
D|--2-2-5-5-5-5-7-7-7-7-7-7-7-7-7-7---2-2-5-5-5-5-7-7-7-7-7-7-7-7-7-7--|
A|--2-2-3-3-5-5-5-5-7-7-7-7-7-7-7-7---2-2-3-3-5-5-5-5-7-7-7-7-7-7-7-7--|
E|--0-0-----3-3-----5-5-5-5-5-5-5-5---0-0-----3-3-----5-5-5-5-5-5-5-5--|
Chorus:
E|------------------------------------------------------------------|
B|------------------------------------------------------------------|
G|----------5-5-5-5--------------------------5-5-5-5----------------|
D|--2-2-2-2-5-5-5-5-7-7-7-7-7-7-7-7--2-2-2-2-5-5-5-5-7-7-7-7-7-7-7--|
A|--2-2-2-2-3-3-3-3-7-7-7-7-7-7-7-7--2-2-2-2-3-3-3-3-7-7-7-7-7-7-7--|
E|--0-0-0-0---------5-5-5-5-5-5-5-5--0-0-0-0---------5-5-5-5-5-5-5--|
I don't know the solo. For the ening I think they play A5 and then D5 but I'm not sure. Later.


Ваше мнение



Капча