Artist: Queens of the Stone Age
Song: You're So Vague
Album: Rated R B-side (2000)
Tuning: C-F-Bb-Eb
Notes:
~ - Let Ring
h - Hammer-On
p - Pull-Off
- Slide Down
/ - Slide Up

Intro:
Eb|--------------------|
Bb|--------------------|
F |------7-------------|
C |--0-0---0----0-13--| (x4)

Verse: alternate between these fills
Eb|------------------------|------------------|------------------|
Bb|------------------------|------------------|------------------|
F |-7---9---10---13---14---|-10h12-10h12-10-9-|-10h12-10h12-9h10-|
C |---0---0----0----0----0-|------------------|------------------| (x12)

Chorus:
Eb|-------|
Bb|-------|
F |-----9-|
C |-0-0---| (x8)

Eb|----------------------|
Bb|----------------------|
F |-9-5-5-5-5-5-5-5-5-7~-|
C |----------------------| (x1)

Interlude:
Eb|-------------------|
Bb|-------------------|
F |-------------------|
C |-0~-----0~-----0~--| (x1)

Verse: (x12)

Chorus: til end




Ваше мнение



Капча