-------------------------------------------------------------------------------
YOU WOULD KNOW - Queens of the Stone Age
-------------------------------------------------------------------------------
Tabbed by: Nancy Ann Rice
Email: [email protected]
Date Tabbed: 2/23/03
Tuning: Standard Low to High: EADGBe
Main Riff
e|----------------------|
B|----------------------|
G|----------------------|
D|---------------8~ ----|
A|-----5----6-----------|
E|---6----7-------------|
Chorus
B5 C#5 G#5
e|-------------------------------------|
B|-------------------------------------|
G|--4-4-4---6-6-6----------------------|
D|--4-4-4---6-6-6---6-6-6-6-6-6-6-6----|
A|--2-2-2---4-4-4---6-6-6-6-6-6-6-6----|
E|------------------4-4-4-4-4-4-4-4----|
Ending Chords
G#5 C#5 B5 Bb5
e|-------------------------------------| Make chord transitions quickly and
B|-------------------------------------| smoothly. (Ending Chords)
G|-----------6------4------3-----------|
D|----6-----6-6----4-4----3-3----------|
A|---6-6---4------2------1-------------|
E|--4----------------------------------|

Ending Riff
e|-------------------------------------|
B|-------------------------------------|
G|-------------------------------------|
D|-------------------------------------|
A|----5---6-----5----------------------|
E|--6-------7---6----------------------|

| / slide up
| slide down
| h hammer-on
| p pull-off
| ~ vibrato
| + harmonic
| x Mute note
This song is from QOTSA's 1998 self-titled debut album. It's a good CD and
should be added to your collection if you don't already have it. I hope you
like my TAB, and drop me a line at [email protected] with any questions,
comments, corrections, etc.
===============================================================================




Ваше мнение



Капча