I love this song, I saw the other tab, and thought I would put what I thought is right.

Eb ---------------------------------------------
Ab ---------------------------------------------
Db --------------------------------------------- x1
Gb ------------------------------(5)------------
Bb -7-9-4-5-4-5-2------7-9-4-5-4-(5)------------
Eb ---------------------------------------------

Eb ---------------------------------------------
Ab ---------------------------------------------
Db ---------------------------------------------x1
Gb --------------------------6-6----------------
Bb -7-9-4-5-4-4>5-7-5>4-2--2-4-4----------------
Eb ---------------------------------------------

Eb ---------------------------------------------
Ab ---------------------------------------------
Db --------------------------------------------- x1
Gb ------------------------------(5)------------
Bb -7-9-4-5-4-5-2------7-9-4-5-4-(5)------------
Eb ---------------------------------------------

Eb ---------------------------------------------
Ab ---------------------------------------------
Db ---------------------------------------------x1
Gb ------------------------2-4-5-5-5-5-5-5-5----
Bb -7-9-4-5-4-4>5-7-5>4-2--2-4-5-5-5-5-5-5-5----
Eb ---------------------------------------------

>>>>>>>>>>>>>>>>>>>>>>>>>>>>>>>>>>>>>>>>>>>>>>>>>>>>>>>>>>>>>>>>>>>>>>>>>>>>

Eb ---------------------------------------------
Ab ---------------------------------------------
Db ---------------------------------------------x4
Gb -2-2-2-4-2-----------------------------------
Bb -2-2-2-2-2-----------------------------------
Eb -0-0-0-0-0-----------------------------------

Eb ---------------------------------------------
Ab ---------------------------------------------
Db ---------------------------------------------x1
Gb --------------------------5------------------
Bb -4-x6up/down--5-x6up/down--x6-up/down-5-x5u/d
Eb -3------------3-----------3-----------3------

>>>>>>>>>>>>>>>>>>>>>>>>>>>>>>>>>>>>>>>>>>>>>>>>>>>>>>>>>>>>>>>>>>>>>>>>>>>>
I'll work on the rest later




Ваше мнение



Капча