Artist:Queens of the stoneage
song:The sky is fallin'
album: Songs for the deaf
track:5
errrrr well not much i can say really, but when i last looked there were no tabs
for this amazing song. So i thought ill try and play it, but i aint bin playing
for long so it really sucks, but it sounds lke it when u play with lots of gain
or distortion.
Standard tuning
---------------------------------------------------
---------------------------------------------------
---------------------------------------------------
--5-5-5-5-5----5-5-5-5-5----5-5-5-5-5----5-5-5-5-5-
--5-5-5-5-5----5-5-5-5-5----5-5-5-5-5----5-5-5-5-5-
--3-3-3-3-3----3-3-3-3-3----3-3-3-3-3----3-3-3-3-3- continued below
---------------------------------------------------
---------------------------------------------------
--3-3-3-3-3----------------4-4-4-4-4---------------
--3-3-3-3-3---3-3-3-3-3----4-4-4-4-4---3-3-3-3-3---
--1-1-1-1-1---3-3-3-3-3----1-1-1-1-1---3-3-3-3-3---
--1-1-1-1-1---1-1-1-1-1----1-1-1-1-1---1-1-1-1-1---
Hope its good enough. i expect ill be getting a lot of crorections but
oh well its my first tab so, what the hell.




Ваше мнение



Капча