#----------------------------------PLEASE NOTE--------------------------------#
#This file is the author's own work and represents their interpretation of the#
#song. You may only use this file for private study, scholarship, or research.#
#-----------------------------------------------------------------------------#
#-- File created with Instab - http://www.pconline.com/~smcarey/instab.html --#
#-----------------------------------------------------------------------------#
Author/Artist: Queens of the Stone Age
Title: Song for the Deaf
Album: Songs for the Deaf
Transcribed by: Nick
Regular QOTSA Tuning, down 2 steps: low to high (C,F,Bb,Eb,G,C)
------------|---------------------------------------------|-------------------|
------------|---------------------------------------------|-------------------|
------------|---------------------------------------------|-------------------|
------------|---------------------------------------------|-------------------|
------------|--------------------------------11vv--11p10p9|-------------------|
------------|--0---12p11-0---12p11-0---12p11--------------|-------------------|
Bass Intro G1 joins in with the main riff 10x
--------5------------7------------3------------3------------------------------|
--------5------------7------------3------------3------------------------------|
--------6------------8------------4------------4------------------------------|
--7--7---------9--9---------5--5---------5--5---------------------------------|
--7--7---------9--9---------5--5---------5--5---------------------------------|
--5--5---------7--7---------3--3---------3--3---------------------------------|
1st Chorus something like this 2x
-----------------------|------------------------------------------------------|
-----------------------|------------------------------------------------------|
-----------------------|------------------------------------------------------|
-----------------------|------------------------------------------------------|
-----------------------|------------------------------------------------------|
-----------------------|------------------------------------------------------|
Back to main riff 2x
------------------------------------------------------------------------------|
-16p15p13-15p13-15---16p15p13-15p13-15--16p15p13-15p13-15---16p15p13-15p13----|
------------------------------------------------------------------------------|
------------------------------------------------------------------------------|
------------------------------------------------------------------------------|
------------------------------------------------------------------------------|
Interlude G1
------------------------------------------------------------------------------|
-15---17p16p15-17p15-17---17p16p15-17p15-17--17p16p15-17p15-17---17p16p15-----|
------------------------------------------------------------------------------|
------------------------------------------------------------------------------|
------------------------------------------------------------------------------|
------------------------------------------------------------------------------|
---------|--------------------------------------------------------------------|
-17p15-17|---5p4p3-5p3-5---5p4p3-5p3-5---5p4p3-5p3-5---5p4p3-5p3-5----4p3p1---|
---------|--------------------------------------------------------------------|
---------|--------------------------------------------------------------------|
---------|--------------------------------------------------------------------|
---------|--------------------------------------------------------------------|
2x G2 doubles G1 with this 2x
------------------------------------------------|-------------------|---------|
-3p1-3---4p3p1-3p1-3---4p3p1-3p1-3---4p3p1-3p1-3|-------------------|---------|
------------------------------------------------|-------------------|---------|
------------------------------------------------|-------------------|---------|
------------------------------------------------|-------------------|---------|
------------------------------------------------|-------------------|---------|
2x Main riff again 4x
--/20vvv--17-20------16--18--22vvv--------------------------------------------|
----------------18------------------------------------------------------------|
------------------------------------------------------------------------------|
------------------------------------------------------------------------------|
------------------------------------------------------------------------------|
------------------------------------------------------------------------------|
Short guitar solo:(I'm not sure its right or even a guitar) 2x
-----------------------------------------------------------------|------------|
-----------------------------------------------------------------|------------|
-----------------------------------------------------------------|------------|
-----------------------------------------------------------------|------------|
-----11p10p9-----------------11p10p9-----------------------------|------------|
--0----------0--12p11p10-0-----------0--12p11p10-----------------|------------|
G2 does something like this; hard to hear but there for sure 4x
---------------------|---------------------------------------------|----------|
---------------------|---------------------------------------------|----------|
---------------------|---------------------------------------------|----------|
---------------------|---------------------------------------------|----------|
---------------------|---------------------------------------------|----------|
---------------------|---------------------------------------------|----------|
Back to main riff 4x Chorus 4x You're on your own for the leads
------------------------------------------------------------------------------|
------------------------------------------------------------------------------|
------------------------------------------------------------------------------|
-2------------2--2---2------2-2-2----2--2---2-2-2-2-2-------2-----2-2---2-----|
-2------------2--2---2------2-2-2----2--2---2-2-2-2-2-------2-----2-2---2-----|
-0------------0--0---0------0-0-0----0--0---0-0-0-0-0-------0-*---0-0---0-----|
Bridge is just this Mark talks
----------|----------------------|----------------------------------------|---|
----------|----------------------|----------------------------------------|---|
----------|----------------------|----------------------------------------|---|
-2-2-----2|----------------------|----------12vv-12p10--------------------|---|
-2-2-----2|----------------------|----------------------------------------|---|
-0-0-----0|----------------------|-0--12p11-------------------------------|---|
here Interlude again 4x Back to main riff but with a change 16x
-----------------------3------------------------------------------------------|
-----------------------3------------------------------------------------------|
-----------------------4------------------------------------------------------|
-----------------------5------------------------------------------------------|
-----------------------3------------------------------------------------------|
-----------------------3------------------------------------------------------|
Chorus 4x ends on then lots of feed back,scrapes etc, etc.




Ваше мнение



Капча