tabbed by joe fitzgerald
all Q.O.T.S.A songs are played half a step tunned down
but this is a easy way of playing it and sorry no solo!
---------------------------------------------------
---------------------------------------------------
---------------------------------------------------
10101010101010101010101010101010101010101010101010-
10101010101010101010101010101010101010101010101010-
8-8-8-8-8-8-8-8-8-8-8-8-8-8-8-8-8-8-8-8-8-8-8-8-8--
--------------------------------------------------
--------------------------------------------------
--------------------------------------------------
101010-1313-101010-1212-101010-1313-101010-1212---
101010-1313-101010-1212-101010-1313-101010-1212---
8-8-8--1111-8-8-8--1010-8-8-8--1111-8-8-8--1010---
and the you go back 2 the start and the bridge bit is
----------------------------------------------------
----------------------------------------------------
-----5----------------------------------------------
33-5-5-6-88---101010101010101010--------------------
33-5-3-6-88---101010101010101010--------------------
11-3---4-66---8-8-8-8-8-8-8-8-8---------------------
do that a few times like the song does and the
----------------------------------------------------
----------------------------------------------------
-----5-------888888-8-------------------------------
33-5-5-6-88--888888-8-8-9-10-1010--131313-----------
33-5-3-6-88--666666-6-8-9-10-1010--131313-----------
11-3---4-66-----------6-7-8--8-8---111111-----------

and thats when the solo comes in i can't work it out
but y don't u av a crack. this is tabbed 100reasonsrock




Ваше мнение



Капча