song: quick and to the pointless
band: queens of the stone age
album: R

WHERE THE STRINGS ARE IN CAPITALS (eBGDAE)AND TEXT IN ** **
I HAVE MADE CORRECTIONS

verse:
e---------------------
b---------------------
g---------------------
d-9-10-10-10-10-10-10-
a-7--8--8--8--8--8--8-
e---------------------

**The intro and verse is actually played an octave down as
fifth chords**
e----------------
B----------------
G----------------
D-2--3-3-3-3-3-3-
A-2--3-3-3-3-3-3-
E-0--1-1-1-1-1-1-
E5 F5

**and directly before the chorus goes**
e----------------
B----------------
G----------------
D-2--3-3-3-3-3-3-
A-2--3-3-3-3-3-3-
E-0--1-1-1-1-0-1-

chorus:
e--------------------------------
b--------------------------------
g--------------------------------
d-9-9-9-9-9-9-9-6--6-6-6-6-6-6-6-
a-7-7-7-7-7-7-7-4--4-4-4-4-4-4-4-
e--------------------------------

**And the chorus is played like this **
e------------------------------------------------------------
B------------------------------------------------------------
G------------------------------------------------------------
D-5-5-5-5-5-5-5-5-5-5-5-5-5-5--4--4-4-4-4-4-4-4-4-4-4-4-4-4--
A-5-5-5-5-5-5-5-5-5-5-5-5-5-5--4--4-4-4-4-4-4-4-4-4-4-4-4-4--
E-3-3-3-3-3-3-3-3-3-3-3-3-3-3--2--2-2-2-2-2-2-2-2-2-2-2-2-2--
G5 F#5

verse variation:
e---------------------
b---------------------
g---------------------
d-9-10-10-10-10-10----
a-7--8--8--8--8--8----
e---------------------

**The verse does variate but not exactly the same as before
(hence, variation)**
e-----------------
B-----------------
G-----------------
D-2--3-X-X-X-X-X--
A-2--3-X-X-X-X-x--
E-0--1-X-X-X-X-X--

**and also with the last five F's played softer instead of muted,
without the high F**
e-----------------
B-----------------
G-----------------
D-2--3------------
A-2--3-3-3-3-3-3--
E-0--1-1-1-1-1-1--

**also the outro is the first three notes of the intro/verse**

.done. comments? corrections? questions? pics of cheese?
mail me.

**Questioned, commented and corrected. No cheese, sorry.
Andy**




Ваше мнение



Капча