No One Knows-Queens Of The Stone Age
Songs For The Deaf
C F Bb Eb G C
( ) = harmonics
Intro:
c12----12----12----12---------------------------------------------
g-8-----8-----8-----8------------10--10--8----10--10--8-----------
e-x-----x-----x-----x-------------x---x-----9--x---x-----9--------
b-9-----9-----9-----9-------------9---9--------9---9--------------
f-7-----7-----7-----7-------------7---7--------7---7--------------
c-----------------------12---0-----------------------------12---
c-----------------------------------------------------------------
g----10--10--8----10--10--8--------------10--10--8----10--10br----
e-----x---x-----9--x---x-----9------------x---x-----9--x---x------
b-----9---9--------9---9------------------9---9--------9---9------
f-----7---7--------7---7------------------7---7--------7---7------
c-0-----------------------------12---0------------------------12
c-------------------(7)---(7)---
g----10--10--8------(7)---(7)---
e-----x---x-----9---(7)---(7)---
b-----9---9---------------------
f-----7---7---------------------
c-0-----------------------------
Verses:
c----------------------------------------------------
g-----8-------8-------8-------8--0---8---8-------8---
e-----x-------x-------x-------x--0---x---x-------x---
b-----9-------9-------9-------9------9---9-------9---
f-----7-------7-------7-------7------7---7-------7---
c-0-------0-------0-------0------------------0-------
c-----------------------------------
g-8---8-------8-------8-------8--0--
e-x---x-------x-------x-------x--0--
b-9---9-------9-------9-------9----- x2
f-7---7-------7-------7-------7-----
c---------0-------0-------0---------
c----------------------------------------
g10---10---10---10---10---10---10-0-10-0-
e-8----8----8----8----8----8----8----8---
b-x----x----x----x----x----x----x----x---
f-9----9----9----9----9----9----9----9---
c-7----7----7----7----7----7----7----7---
c----------------------------------------
g-8----8----8----8----8----8----8-0--8-0-
e-8----8----8----8----8----8----8----8---
b-x----x----x----x----x----x----x----x---
f-6----6----6----6----6----6----6----6---
c----------------------------------------
1st time:
c------------------------------------------------0-------
g-8---10--10--8---------------10--10--8------8---5b~~~~--
e-x----x---x-----9-------------x---x-----9---x-----------
b-9----9---9-------------------9---9---------9-----------
f-7----7---7-------------------7---7---------7-----------
c-------------------12----0-----------------------------
2nd time:
c--------------------------------------------
g-8---10--10--8-----10---10------------------
e-x----x---x-----9---x----x------------------
b-9----9---9---------9----9------------------
f-7----7---7---------7----7---------5-7p5----
c----------------------------0--5h7-------7--
c--------------------------------------
g----10--10--8-----10--10--8-----------
e-----x---x-----9---x---x-----9--------
b-----9---9---------9---9--------------
f-----7---7---------7---7--------------
c-0------------------------------12---
c----------------------------------------
g10---10---10---10---10---10---10-0-10-0-
e-8----8----8----8----8----8----8----8---
b-x----x----x----x----x----x----x----x---
f-9----9----9----9----9----9----9----9---
c-7----7----7----7----7----7----7----7---
c----------------------------------------
g-8----8----8----8----8----8----8-0--8-0-
e-8----8----8----8----8----8----8----8---
b-x----x----x----x----x----x----x----x---
f-6----6----6----6----6----6----6----6---
c----------------------------------------
c-------------------------------------12-----
g-8---10--10--8-----10---10--0--10b~~~-------
e-x----x---x-----9---x----x--------------9~~-
b-9----9---9---------9----9------------------
f-7----7---7---------7----7------------------
c--------------------------------------------
c-----------------------------------------
g----10--10--8-----10--10--8--------------
e-----x---x-----9---x---x-----9----9--x---
b-----9---9---------9---9----------x--x---
f-----7---7---------7---7----------7--x---
c-0---------------------------------------
Bridge:
c------------------------------------------------
g------------------------------------------------
e-9--x-11--x--12--x-11--14--x--12--16--x--14--x--
b-x--x--x--x---x--x--x---x--x---x---x--x---x--x--
f-7--x--9--x--10--x--9--12--x--10--14--x--12--x--
c------------------------------------------------
c----------------------------------
g----------------------------------
e----------------------------------
b----------------------------------
f-9p0-9p0-9p0-9p0-9p0-9p0-9p0-9p0--
c-7p0-7p0-7p0-7p0-7p0-7p0-7p0-7p0--
c------------------------------------------------
g------------------------------------------------
e-9--x-11--x--12--x-11--14--x--12--16--x--14--x--
b-x--x--x--x---x--x--x---x--x---x---x--x---x--x--
f-7--x--9--x--10--x--9--12--x--10--14--x--12--x--
c------------------------------------------------
c----------------------------------
g----------------------------------
e----------------------------------
b----------------------------------
f-9p0-9p0-9p0-9p0-9p0-9p0-9p0-9p0--
c-7p0-7p0-7p0-7p0-7p0-7p0-7p0-7p0--
c---------------------------------------------------
g---------------------------------------------------
e-12--x-11--x--9--x--8--x--9--x-11--x--12--x-11--x--
b--x--x--x--x--x--x--x--x--x--x--x--x---x--x--x--x--
f-10--x--9--x--7--x--6--x--7--x--9--x--10--x--9--x--
c---------------------------------------------------
c----------------------------------
g----------------------------------
e----------------------------------
b----------------------------------
f-9p0-9p0-9p0-9p0-9p0-9p0-9p0-9p0--
c-7p0-7p0-7p0-7p0-7p0-7p0-7p0-7p0--
x2
c-----------------------------------------
g-----------------------------------------
e-----------------------------------------
b-----------------------------------------
f-14-x-14-x-14-x-14-x-14-x-14-x-14-x-14-x-
c-12-x-12-x-12-x-12-x-12-x-12-x-12-x-12-x-
c-----------------------------------------
g-----------------------------------------
e-----------------------------------------
b------------------------------8----------
f-14-x-14-x-14-x-14-x----9-10--6--9--7--9-
c-12-x-12-x-12-x-12-x----7--8-----7--5--7-
then
c---------------------------------------------------------
g---------------------------------------------------------
e---------------------------------------------------------
b---------------------------------------------------------
f-9-10--6--9--7--9---9-10--6--9--7--9---9-10--6--9--7--9--
c-7--8-----7--5--7---7--8-----7--5--7---7--8-----7--5--7--
Bass:
e-------------------------------
b-12h14-14--14-14--14-14-14-14-- x2
f-------------------------------
c-------------------------------
e------------------12h14-14--14-14--
b-12h14-14--14-14-------------------
f-----------------------------------
c-----------------------------------
e-----------------------------------
b-12h14-14--14-14-------------------
f-----------12-12--12h14-14--14-14--
c-----------------------------------
Guitar Solo:
c-----0-----0------0-------0--0--------0-----0-----0-----0-----0--
g-5/7---7/8---8/10---10/12---12~~~~~~-12/17-1715-15/19-1915-15--
e-----------------------------------------------------------------
b-----------------------------------------------------------------
f-----------------------------------------------------------------
c-----------------------------------------------------------------
c--0------0-------------------------------------------------------
g--1715--8/12----12p108-10~~~~-10p8p7-8~~~~-8p75-7~~~~-7h8p7p5-
e-----------------------------------------------------------------
b-----------------------------------------------------------------
f-----------------------------------------------------------------
c-----------------------------------------------------------------
c-----------------------------------------------------------------
g-7/12-12~~~~~------8--12b~~~------8--12b~~~------8--12b~~~-------
e----------------9--------------9--------------9------------------
b-----------------------------------------------------------------
f-----------------------------------------------------------------
c-----------------------------------------------------------------
c-14p11----------14p11----------14p11----------14p11--------------
g-------12br-----------12br-----------12br-----------12br---------
e------------12-------------12-------------12-------------12------
b-----------------------------------------------------------------
f-----------------------------------------------------------------
c-----------------------------------------------------------------
Bass:
e-----------------------------------------------------------------
b-----------------------------------------------------------------
f-----7-------7-------7-------7-------7-------7-------7-------7---
c-0-------0-------0-------0-------0-------0-------0-------0-------
that’s all
just repeat figures.......
trevor jones
[email protected]




Ваше мнение



Капча