X===============================PLEASE NOTE=====================================
X This tab belongs to its author and represents his interpretation of the song.
X You may only use this tab for private study, scholarship, or research.
X Do not change, deface, mutilate, or in any other way alter this tab.
X You must email the author first if you want to use this tab on your site.
X===============================================================================

Monsters in the Parasol
tabbed by thefade.org

Tuning - C F Bb Eb G C

intro/verse:
-----------------------------|-----------------|
-----------------------------|-----------------|
---6-6-6-6-6-6-6-6-6-6-6-6---|---4-4-4-4-4-4---|
---6-6-6-6-6-6-6-6-6-6-6-6---|---4-4-4-4-4-4---|
---4-4-4-4-4-4-4-4-4-4-4-4---|---2-2-2-2-2-2---|
-----------------------------|-----------------|

verse fill 1:
-------|
---4---|
---6---|
-------|
-------|
-------|

verse fill 2:
-------|
---8---|
---6---|
-------|
-------|
-------|

intro

verse fill 1 4x

verse:
The walls are closing in again, oh well
verse fill 1
The walls are closing in again, oh well
verse fill 1
I seen some thing I thought I never saw
Covered in hair
verse fill 1

verse fill 2

Paul’s dad is warped and bubbling, oh well
verse fill 1
Paul’s dad is warped and bubbling, oh well
verse fill 1
And my mind is up here on another wave
Covered in hair

pre-chorus: guitar 1 (left channel)
--------------------------|
--------------------------|
--------------------------|
---11-10-9-8-9-10-11-10---|
--------------------------|
--------------------------|

guitar 2 (right channel):
---------------------|
---------------------|
---------------------|
---------------------|
---9-8-7-6-7-8-9-8---|
---------------------|

pre-chorus:
She won't grow

riff 1:
------------------------------------|
------------------------------------|
---12-12-12-12-12-12--9-9-9-9-9-9---|
---12-12-12-12-12-12--9-9-9-9-9-9---|
---10-10-10-10-10-10--7-7-7-7-7-7---|
------------------------------------|

------------------------------------------|
------------------------------------------|
---14-14-14-14-14-14--15-15-15-15-15-15---|
---14-14-14-14-14-14--15-15-15-15-15-15---|
---12-12-12-12-12-12--13-13-13-13-13-13---|
------------------------------------------|

chorus: guitar 1
---------------------------------|
---------------------------------|
---13-13-13-13-13----------------|
------------------14-14-14-14-14-|
---------------------------------|
---------------------------------|

-----------------------------------------------|
-----------------------------------------------|
------------------13-12-13----------13-12-13---|
---12-12-12-12-12----------12-12-12------------|
-----------------------------------------------|
-----------------------------------------------|

guitar 2:
------------------------------|
-------------------------11---|
--------------------9-11------|
--------11-10---11------------|
---9--------------------------|
------------------------------|

chorus:
You’ve got a monster (distress) in your parasol (body out)
You’ve got a monster (dwarves, doors?) in your parasol (of course)
You’ve got a monster (displeasure) in your parasol (I told you)
You’ve got a monster (?) in your parasol (xnay)

verse fill 1

verse fill 2

verse:
Paul’s sister is an alien, oh well
verse fill 1
Paul’s sister is an alien, oh well
verse fill 2
I seen some things I thought I never saw
Covered in hair

pre-chorus:
She won't grow

chorus:
You’ve got a monster (distress, my pest) in your parasol
You’ve got a monster (drawves) in your parasol (war horse)
You’ve got a monster (displeasure) in your parasol (?)
You’ve got a hole in you I never saw (insane)
In your parasol, in your parasol

end on: guitar 1 (left channel)
--------------------------|
--------------------------|
--------------------------|
---11-10-9-8-9-10-11-10---|
--------------------------|
--------------------------|

guitar 2 (right channel):
---------------------|
---------------------|
---------------------|
---------------------|
---9-8-7-6-7-8-9-8---|
---------------------|




Ваше мнение



Капча