song: Millionaire
artist: Queens Of The Stone Age
album: 'XXX' Triple X Soundtrack
transcribed by: Slit
Intro: Drums
Riff 1:x2
d|---------------------------------|
A|---------------------------------|
F|---------------------------------|
C|--3h5----------------------------|
G|---------------------------------|
C|------0-0-0-0-0--0-0-0-0-0--0-0--|
Riff 2:x1
d|----------------------------------------------------------------|
A|----------------------------------------------------------------|
F|----------------------------------------------------------------|
C|--3h5----------------------------5-3----------------------------|
G|---------------------------5-3-5--------------------------------|
C|------0-0-0-0-0--0-0-0-0-0-----------0-0-0-0-0--0-0-0-0-0--0-0--|
Riff 1:x8(w/heavy distortion)
Riff 3:x2 2nd time
d|---------------------------------|-------|
A|---------------------------------|-------|
F|---------------------------------|-------|
C|--5-5-5-3--3-3-3-3-3-3-3-3-3-3-3-|-3-3-3-|
G|--5-5-5-3--3-3-3-3-3-3-3-3-3-3-3-|-3-3-3-|
C|--5-5-5-3--3-3-3-3-3-3-3-3-3-3-3-|-3-3-3-|
Riff 1x5
Riff 2:x1
Riff 1:x4
Riff 3:x2
Riff 4: (Guitar 1 repeats:)
d|-----|--------------------------------|
A|-----|--------------------------------|
F|-----|--------------------------------|
C|-3h5-|----------------3h5-------------|
G|-----|--------------------3h5---------|
C|-----|-0-0-0-0-0--0-0---------5h7-3h5-|
*These are really the only riffs you need. And yah, there is a better version on
QOTSA's new album, but i'm working on that.




Ваше мнение



Капча