Queens Of The Stone Age - Mexicola
Submitted By: Sqweeky
EMail: [email protected]

C# Tuning

Intro
E------------------------------------------------------------
B--------------------------------------------7---------------
G--------------------------------------------9fb------------- x 10
D-------9-------8---------9-------8--------------------------
A-------7-------6---------7-------6--------------------------
E---0-0-------0-------0-0-------0----0-0-0-------------------

Fig.1
E---3--------------------------------------------------------
B---3-----------------------7--------------------------------
G---0-----------------------9fb------------------------------ x 2
D---0-----------------------------------------9--------------
A---2-----------------------------------------7--------------
E---3-----------------------------------------0--------------

Fig.2
E------------------------------------------------------------
B------------------------------------------------------------
G---7---------------9fb-------------------------------------- x 4
D---5---------------------------9-------------------5-5------
A-------------------------------7--------------5h7-----------
E------------------------------------------------------------

Fig.3
E---3--------------------------------------------------------
B---3--------------------------------------------------------
G---0-------------------------------------------------------- x 4
D---0--------------------------------------------------------
A---2---------------------------------9----------------------
E---3---------------------------------7----------------------

Chorus
GUITAR I GUITAR II
E-----------------------------|------------------------------
B-----------------------------|------------------------------
G-----------------------------|--------------12-12-12--------
D-----------------------------|------------------------------
A-------9-----10-10-10--------|-------9----------------------
E---0-0---0-0-----------------|---0-0---0-0------------------




Ваше мнение



Капча