‘Leg of lamb’ by Queens of the Stone Age©.
Tabbed by the lovely “Matthew ‘rubbish’ Jones™.”

Intro
E: ----------------
B: ----------------
G: --5-5-----------
D: --5-5-----------
A: --3-3-----------
E: ----------------

Verse

Guitar 1
E: -------------------------------------------------------
B: -------------------------------------------------------
G: --7-7-7-7----------------5-5-6-6-----------------------
D: --7-7--------------------5-5-6-6—-every now any and again.
A: --5-5--------------------3-3-4-4-----------------------
E: -------------------------------------------------------
Guitar 2
E: -------------------------------------------------------
B: -------------------------------------------------------
G: ------7------------------------------------------------
D: ----7-----7--------------------------------------------
A: --5---------545----------------------------------------
E: -------------------------------------------------------
Bass
G: --------7----------------------------------------------
D: ------7---7--------------------------------------------
A: --3-5-------5-5----------------------------------------
E: -------------------------------------------------------

Chorus

Guitars 1 and 2
E: -------------------------------------------------------
B: -------------------------------------------------------
G: --7-7-5-5-6-6------------------------------------------
D: --7-7-5-5-6-6-7-7-8-8-3-3-5-5-7-7—-X2------------------
A: --5-5-3-3-4-4-7-7-8-8-3-3-5-5-7-7----------------------
E: --------------5-5-6-6-1-1-3-3-5-5----------------------
Bass
G: -------------------------------------------------------
D: -----------------------------------X2------------------
A: --5-5-3-3-4-4------------------------------------------
E: --------------5-5-6-6-1-1-3-3-5-5----------------------




Ваше мнение



Капча