Queens of the Stone Age
Rated R

I Think I lost my Headache (bass:nick oliveri)
tabbed by brian ... [email protected]


Don't complain if some minor things are wrong, reason that you are looking at this is because you didn't feel like learning it on your own, email me with any questions

E--------------------------
B---/6-------------4---6---
F#-------------------------
C#-------4------4----------


E------------------
B------------------
F#-----------------
C#--4/16-12-14-12--


E------------------
B------------------
F#----------0-5-3--
C#-4-4-4-4---------


E------------------------
B--------6----4-----6----
F#---------6-----6-------
C#--44-------------------


E-------7--5--1-----4---0----
B---5-----------3------------
F#---------------------------
C#---------------------------

there are various fill ins be creative




Ваше мнение



Капча