queens of the stone age
gonna leave you tab
Tuning - C F Bb Eb G C

intro:

----------------------------------------------------------------|
-------14r------------------------------------------------------|
-11-12-----11h-12-11h-12----------------------------------------|
------------------------11r-------------------------------------|
-----------------------------13-11h10-10-11---------------------|
--------------------------------------------11-10r--------------|

----------------------------------------------------------------|
-------14r------------------------------------------------------|
-11-12-----11h-12-11h-12------15-14r--15-12r--15-14r-15-12r-----|
------------------------11r-------------------------------------|
----------------------------------------------------------------|
----------------------------------------------------------------|

riff1
----------------------------------------------------------------|
----------------------------------------------------------------|
-8-8-8-8-8-8-8-8---11-11-11-11-11-11-11-11----------------------|
-8-8-8-8-8-8-8-8---11-11-11-11-11-11-11-11----------------------|
-6-6-6-6-6-6-6-6---9--9--9--9--9--9--9--9-----------------------|
----------------------------------------------------------------|

----------------------------------------------------------------|
----------------------------------------------------------------|
-8-8-8-8-8-8-8-8--7-7-7-7-7-7-7-7-------------------------------|
-8-8-8-8-8-8-8-8--7-7-7-7-7-7-7-7-------------------------------|
-6-6-6-6-6-6-6-6--5-5-5-5-5-5-5-5-------------------------------|
----------------------------------------------------------------|

----------------------------------------------------------------|
----------------------------------------------------------------|
-8-8-8-8-8-8-8-8---11-11-11-11-11-11-11-11----------------------|
-8-8-8-8-8-8-8-8---11-11-11-11-11-11-11-11----------------------|
-6-6-6-6-6-6-6-6---9--9--9--9--9--9--9--9-----------------------|
----------------------------------------------------------------|

----------------------------------------------------------------|
----------------------------------------------------------------|
-8-8-8-8-8-8-8-8-8-8-8-8-8-8-8-8--------------------------------|
-8-8-8-8-8-8-8-8-8-8-8-8-8-8-8-8--------------------------------|
-6-6-6-6-6-6-6-6-6-6-6-6-6-6-6-6--------------------------------|
----------------------------------------------------------------|

riff2 (bridge)

3x
-|----------------------------------||
-|----------------------------------||
-|-4-4-4-4-4-4-4-4--3-3-3-3-3-3-3-3-||
-|-4-4-4-4-4-4-4-4--3-3-3-3-3-3-3-3-||
-|-2-2-2-2-2-2-2-2--1-1-1-1-1-1-1-1-||
-|----------------------------------||

then:
----------------------------------------------------------------|
----------------------------------------------------------------|
-4-4-4-4-4-4-4-4--6-6-6-6-6-6-6-6-------------------------------|
-4-4-4-4-4-4-4-4--6-6-6-6-6-6-6-6-------------------------------|
-2-2-2-2-2-2-2-2--4-4-4-4-4-4-4-4-------------------------------|
----------------------------------------------------------------|

riff3 (chorus)

2x
-|--------------------------------------------------------------|
-|--------------------------------------------------------------|
-|8-8-8-8-8-8-8-8---11-11-11-11-11-11-11-11---------------------|
-|8-8-8-8-8-8-8-8---11-11-11-11-11-11-11-11---------------------|
-|6-6-6-6-6-6-6-6---9--9--9--9--9--9--9--9----------------------|
-|--------------------------------------------------------------|

----------------------------------||
----------------------------------||
-4-4-4-4-4-4-4-4--3-3-3-3-3-3-3-3-||
-4-4-4-4-4-4-4-4--3-3-3-3-3-3-3-3-||
-2-2-2-2-2-2-2-2--1-1-1-1-1-1-1-1-||
----------------------------------||

riff1

riff2 as above

riff3 4x

riff 4 (break)

(there’s also lots of lead stuff going on here which I‘m not able to tab)

----------------------------------------------------------------|
----------------------------------------------------------------|
-8-8-8-8--11-11-11-11--8-8-8-8--7-7-7-7-------------------------|
-8-8-8-8--11-11-11-11--8-8-8-8--7-7-7-7-------------------------|
-6-6-6-6---9--9--9--9--6-6-6-6--5-5-5-5-------------------------|
----------------------------------------------------------------|

----------------------------------------------------------------|
----------------------------------------------------------------|
-8-8-8-8--11-11-11-11--8-8-8-8--8-8-8-8-8-----------------------|
-8-8-8-8--11-11-11-11--8-8-8-8--8-8-8-8-8-----------------------|
-6-6-6-6---9--9--9--9--6-6-6-6--6-6-6-6-6-----------------------|
----------------------------------------------------------------|

----------------------------------------------------------------|
----------------------------------------------------------------|
-8-8-8-8-8-8-8-8-8-8-8-8-8-8-8-8--------------------------------|
-8-8-8-8-8-8-8-8-8-8-8-8-8-8-8-8--------------------------------|
-6-6-6-6-6-6-6-6-6-6-6-6-6-6-6-6--------------------------------|
----------------------------------------------------------------|

riff3 3x

ending

---------------------------------------------------------------|
---------------------------------------------------------------|
-8-8-8-8-8-8-8-8---11-11-11-11-11-11-11-11---------------------|
-8-8-8-8-8-8-8-8---11-11-11-11-11-11-11-11---------------------|
-6-6-6-6-6-6-6-6---9--9--9--9--9--9--9--9----------------------|
---------------------------------------------------------------|

--------------------------------------|
--------------------------------------|
-4-4-4-4-4-4-4-4--6-6-6-6-6-6-6-6--8r-|
-4-4-4-4-4-4-4-4--6-6-6-6-6-6-6-6--8r-|
-2-2-2-2-2-2-2-2--4-4-4-4-4-4-4-4--6r-|
--------------------------------------|




Ваше мнение



Капча