hey!
song:god is in the radio
by:qotsa
email me at [email protected]
main riff:
e---------------/---------------------------------------------------|
b---------------/---------------------------------------------------|
g--------0------/---2-----2-----------------------------------------|
d--0h1h2--------/-----0h2-------------------------------------------|
a---------1--0--/-----------0---------------------------------------|
e---------------/---------------------------------------------------|
chorus:
e----------------------------------------------------------------------------|
b----------------------------------------------------------------------------|
g----------------------------------------------------------------------------|
d----7-------5-5---7--------------33333333-----------------------------------|
a----7-------5-5---7--------------33333333-----------------------------------|
e----5-------3-3---5--------------11111111-----------------------------------|
then back to the main riff but raised up to the 17th fret on the top 3 strings
[cant be arsed to tab it]
Then after a chorus the main riff is played once then there is a gap , then it goes:
e----------------------------------------------------------------------|
b----------------------------------------------------------------------|
g------------------5/7-7-5/7-7-----------------------------------------|
d---5--33333333----5/7-7-5/7-7-----------------------------------------|
a---5--33333333----3/5-5-3/5-5--etc------------------------------------|
e---3--11111111--------------------------------------------------------|
solo:
e-----------------------------------------------------------------------|
b--8/10---8--------------5----------------------------------------------|
g------------7p5-7p5-7p5-7b-5h7p5---------------------------------------|
d-----------------------------------7bb--7~--5h7/9---12----12h14--------|
a-------------------------------------------------------14--------------|
e-----------------------------------------------------------------------|
e----------------------------15br----------------------15h17------------|
b--13h15p13--15b---13h15p13--------15b----------13-15--------17p15------|
g----------------------------------------12-14--------------------------|
d-----------------------------------------------------------------------|
a-----------------------------------------------------------------------|
e-----------------------------------------------------------------------|
e----------------------------------------------------------------------------|
b---13h15p13--------13-------------------------------------------------------|
g------------12-14-----14p12-------------------------------------------------|
d------------------------------14p12-----------------------------------------|
a-------------------------------------12p10----------------------------------|
e----------------------------------------------------------------------------|
[just a rough guide]
then it just goes:
e----------------------------------------------------------------------|
b----------------------------------------------------------------------|
g----------------------------------------------------------------------|
d----------------------------------------------------------------------|
a----------------------------------------------------------------------|
e-------6-5---------6-5----------3-5-----------3-5---------------------|
I cant be arsed to tab the quite bits at the end but if u desperately want them i will
it........at a small fee!
email me n tell me if its any good!




Ваше мнение



Капча